Song name
# A B C D E F G H I J K L M N O P Q R S T U V W X Y Z

Lady Of The Sunshine - Anna tab

Anna - Lady Of The Sunshine

Tuning - (DADF#BE)

Capo on 1st fret

Listen to the song to get the rhythm for the sruming pattern

Intro
|-------------------------------|
|------6--6-6-6--6-6------------|
|------6--6-6-6--6-6---6--6-6-0-|
|--3-3-3--3-3-3--3-3-/-6--6-6-0-|
|--3-3-3--3-3-3--3-3-/-6--6-6-0-|
|--3-3-3--3-3-3--3-3-/-6--6-6-0-|

|-------------------------------|
|------6--6-6-6--6-6------------|
|------6--6-6-3--3-3---6--6-6-0-|  Note the slight change in the first chord
|--3-3-3--3-3-3--3-3-/-6--6-6-0-|
|--3-3-3--3-3-3--3-3-/-6--6-6-0-|
|--3-3-3--3-3-3--3-3-/-6--6-6-0-|

|-------------------------------|
|------6--6-6-6--6-6------------|
|------6--6-6-3--3-3---6--6-6-0-|
|--3-3-3--3-3-3--3-3-/-6--6-6-0-|
|--3-3-3--3-3-3--3-3-/-6--6-6-0-|
|--3-3-3--3-3-3--3-3-/-6--6-6-0-|

|-------------------------------|
|------6--6-6-6--6-6------------|
|------6--6-6-3--3-3---6--6-6-0-|
|--3-3-3--3-3-3--3-3-/-6--6-6-0-|
|--3-3-3--3-3-3--3-3-/-6--6-6-0-|
|--3-3-3--3-3-3--3-3-/-6--6-6-0-|

with this little fill over the second two parts
|---------------------------|
|---------------------------|
|--7--6---------------7--6--|
|---------------------------|
|---------------------------|
|---------------------------|

Verse
|-------------------------------|
|------6--6-6-6--6-6------------|
|------6--6-6-3--3-3---6--6-6-0-|
|--3-3-3--3-3-3--3-3-/-6--6-6-0-|
|--3-3-3--3-3-3--3-3-/-6--6-6-0-|
|--3-3-3--3-3-3--3-3-/-6--6-6-0-|

|-------------------------------|
|------6--6-6-6--6-6------------|
|------6--6-6-3--3-3---6--6-6-0-|
|--3-3-3--3-3-3--3-3-/-6--6-6-0-|
|--3-3-3--3-3-3--3-3-/-6--6-6-0-|
|--3-3-3--3-3-3--3-3-/-6--6-6-0-|

|-------------------------------|
|------6--6-6-6--6-6------------|
|------6--6-6-3--3-3---6--6-6-0-|
|--3-3-3--3-3-3--3-3-/-6--6-6-0-|
|--3-3-3--3-3-3--3-3-/-6--6-6-0-|
|--3-3-3--3-3-3--3-3-/-6--6-6-0-|

|-------------------------------|
|------6--6-6-6--6-6------------|
|------6--6-6-3--3-3---6--6-6-0-|
|--3-3-3--3-3-3--3-3-/-6--6-6-0-|
|--3-3-3--3-3-3--3-3-/-6--6-6-0-|
|--3-3-3--3-3-3--3-3-/-6--6-6-0-|

Chorus
Kinda hard to hear cause of that fill over the top but i think it sounds like this

   d  d  u   u  d  u   u  d  u   u  d  u  d  d u  u d u
|---------------------------------------------------------------------|
|---------------------------------------------------------------------|
|-----11-11--11-11-11--11-11-11--11-11-11-6--6-6--6-6-6---------------|
|--11-11-11--11-11-11--11-11-11--11-11-11-8--8-8--8-8-8--6-8-6-8/10-8-|
|--11-11-11--11-11-11--11-11-11--11-11-11-8--8-8--8-8-8--6-8-6-8/10-8-|
|--11-11-11--11-11-11--11-11-11--11-11-11-8--8-8--8-8-8--6-8-6-8/10-8-|
Play it four times
over the top of the chorus is this little fill
|--------------------|
|--------------------|
|--7---6-------------|
|----------8---6---8-|
|--------------------|
|--------------------|
which is played four time as well
And i think i can also here a second guitar playing the 6th fret on the b
with the 1st chorus chord on the 11th fret. i guess you play it by tuning the high E 
up a step
playing it open but i cant be bothered

Bridge
Play the second part part of the intro (the bit with the fill) twice

Verse 2
Same as the first verse

chorus
Same as the first chorus

Solo
|----------------------------------------------------------------------|
|----------------------------------------------------------------------|
|--11---9-------14-13-11----11---9-------14-13-11----11-11-11-11-11-11-|
|---------10-------------13--------10-------------13-------------------|
|----------------------------------------------------------------------|
|----------------------------------------------------------------------|

|---------------------------------------------------------|
|---------------------------------------------------------|
|--14-13-11----11---9-------14-13-11----11-11-11-11-11-11-|
|-----------13--------10-------------13-------------------|
|---------------------------------------------------------|
|---------------------------------------------------------|

|---------------------------|
|----------------13---------|
|--14-13-11----------13--14-|
|-----------13--------------|
|---------------------------|
|---------------------------|
Play the verse and then the chorus as rhythm for the solo

Chorus
Play the chorus line 6x and you are done

i know its a bit messy but it sounds good


Storz
Tap to rate this tab
# A B C D E F G H I J K L M N O P Q R S T U V W X Y Z