Song name
# A B C D E F G H I J K L M N O P Q R S T U V W X Y Z

Limp Bizkit - Gold Cobra tab

Limp Bizkit - Gold Cobra tab
This is my first tab and I think it sounded 90% Correct! :D
Tuning: C# F# B E G# C#

h-hammer on
*-pinch harmonics
^-up strum

Intro
C#|-----------------------------------------|
G#|-----------------------------------------|
E |---------2-2-----------------------------|  X12
B |---------2-2-----------------------------|
F#|---------2-2-----------------------------|
C#|--------------0h10h12h10h12-12-12-10h12--|

Verse
C#|-------------------------------------------|
G#|-------------------------------------------|
E |-------------------------------------------|  X4
B |---------2--2*---2-2^-2-2^-2-2--5-5 5-5----|
F#|---------2-2-----2-2^-2-2^-2-2--5-5^5-5----|
C#|--------------------------------3-3 3-3----|

Pre-Verse just repeat the intro

Chorus
C#|-------------------------------------------------------------|
G#|-------------------------------------------------------------|
E |-------------------------------------------------------------|
B |---2-2-x-2-2-2----5-5 -5-5 -3-3 -3-3 ------------------------|
F#|---2-2-x-2-2-2----5-5^-5-5^-3-3^-3-3^----7-7^-7---10-10^-10--|
C#|---2-2-x-2-2-2----3-3 -3-3 -1-1 -1-1 ----5-5 -5---8 -8  -8 --|

2nd time
C#|---------------------------------------------------------------|
G#|---------------------------------------------------------------|
E |---------------------------------------------------------------|
B |---2-2-x-2-2-2----5-5 -5-5 -3-3 -3-3 --------------------------|
F#|---2-2-x-2-2-2----5-5^-5-5^-3-3^-3-3^----10-10^-10---13-13^-13-|
C#|---2-2-x-2-2-2----3-3 -3-3 -1-1 -1-1 ----8 -8  -8 ---11-11 -11-|


Bridge there's no guitar parts mostly bass

Just repeat the chorus after the bridge...

That's just pretty much of it! Not that hard!Enjoy :)
Tap to rate this tab
# A B C D E F G H I J K L M N O P Q R S T U V W X Y Z