Song name
# A B C D E F G H I J K L M N O P Q R S T U V W X Y Z

Marty Friedman - Mama tab

----------------------------------------------------------------------------
			     "Mama" - Marty Friedman(guitar god)
----------------------------------------------------------------------------
Tabbed by: Russell (2009)
I transcribed this a few years ago, here it is.

Tuning: Standard

e|--------------------------------------------------------------------------|
B|--------------------------------------------------------------------------|
G|--------------------------------------------------------------------------|
D|---3h4/12--5-5\2-2/14-------9-7-7h9--7h9p7\5-5p4-4h5--4h5p4\2-0-0h2-------|
A|-2----------------------6-9-----------------------------------------------|
E|---------------------/7---------------------------------------------------|

e|---------------------------------------------------------------------------|
B|--------------------------------------------------------6h7-7/15-----------|
G|-------------------------------------------------------------------12-12p9-|
D|--------B--------------------------------------------/9---------\8---------|
A|---5-7-7(9)-5-4-5p4---5h7--5-5-4-8--4-4-4h5p4-4-4/9------------------------|
E|-5------------------7--------------------------7---------------------------|
     B
e|-11(12-12)----7------------------------------------------------B----------|
B|-------------7--10-10-10-10/12-12\10-8-7-10p8-8p7-8h10p8p7h8--7(8-7)p5----|
G|------------8-------------------------------------------------------------|
D|----------/9--------------------------------------------------------------|
A|--------------------------------------------------------------------------|
E|--------------------------------------------------------------------------|

e|-------------------7--------10-9-7----------------------------------------|
B|--PB--------------7--10-8-7--------10-8-7--B------------------------------|
G|-8(9-8-9)--6-9(11)------------------------9(11-9)p7--9--7~-----7h9-7-7-6--|
D|----------7-----------------------------------------9--9--9-9~------------|
A|--------------------------------------------------------------------------|
E|--------------------------------------------------------------------------|

e|--------------------]-----------------------------------------------------|
B|------------------7~]----------------------12-10-10h12-10h12p10p8\7-7h8---|
G|-10-6-6-6h7p6---6---]------11---12\6---8/11-------------------------------|
D|--------------9-----]-/9-12---8-----/9------------------------------------|
A|--------------------]-----------------------------------------------------|
E|--------------------]-----------------------------------------------------|

e|--B-----------------------------------------------------------------------|
B|-7(8-7)p5---5--------B------------------------------------7---------------|
G|----------7-----6-9-9(11)-7-6-7p6---7h9-7-6-10--6-6-7-6--6----------------|
D|--------------7------------------9----------------------9-----------------|
A|--------------------------------------------------------------------------|
E|--------------------------------------------------------------------------|

e|--------------------------------------------------------12-14-------------|
B|-12--14-12--14-15--14-12--12--14-12---12-------12--14-15------15-12-12h15-|
G|------------------------11----------14--11/14-----------------------------|
D|--------------------------------------------------------------------------|
A|--------------------------------------------------------------------------|
E|--------------------------------------------------------------------------|

e|---PB------------------------]--------------------------------------------|
B|-15(17-15)15-14-15--14-12-14-]-------------------------12-10-10-10-10h12--|
G|-----------------------------]------11---12\6-6----8/11-------------------|
D|-----------------------------]-/9-12---8--------/9------------------------|
A|-----------------------------]--------------------------------------------|
E|-----------------------------]--------------------------------------------|

e|--------------------------B-----------------------------------------------|
B|-10h12p10p8\7-7-8p7-8--7-7(8-7)5---5------------------B-------------------|
G|---------------------------------7-----6-9-9(11)-7-6-6(7-6)--7h9-7-7-6-10-|
D|-------------------------------------7---------------------9--------------|
A|--------------------------------------------------------------------------|
E|--------------------------------------------------------------------------|

e|------------------14]-----------------------------------------------------|
B|---------------7----]-----------------------------------------------------|
G|-6-6-6h7p6---6------]-----------------------------------------------------|
D|-----------9--------]-----------------------------------------------------|
A|--------------------]-----------------------------------------------------|
E|--------------------]-----------------------------------------------------|

e|-------------------------------B-------------------------PB---------------|
B|--------------------12-14-15-15(17-15)15--14-15--14-12-13(14-13-14)-------|
G|-----------11-12-14-------------------------------------------------------|
D|-/11-12-14----------------------------------------------------------------|
A|--------------------------------------------------------------------------|
E|--------------------------------------------------------------------------|
        B
e|-14-14(15)--14-12------------------B----------------------PB----------14--|
B|------------------15-14-12-14-15-15(17-15-17)-15--14-15--13(14-13)-12-----|
G|--------------------------------------------------------------------------|
D|--------------------------------------------------------------------------|
A|--------------------------------------------------------------------------|
E|--------------------------------------------------------------------------|

e|-------19-21-15-19-14-15--------------------------------------------------|
B|-19-20-------------------15-19--14-15-12-14-------------------------------|
G|--------------------------------------------12-16-11-12-------------------|
D|--------------------------------------------------------12-16-11-12-9-11--|
A|--------------------------------------------------------------------------|
E|--------------------------------------------------------------------------|

e|-----------------------------------------9--7------------------------------|
B|-----------------------------------7/8---8--9------------------------------|
G|---------------------------------9-----9-9--7------------------------------|
D|-------------------------------8------------9------------------------------|
A|-10-14-9-10------------------9---------------------------------------------|
E|------------10-14-9-10-7-9-6-----------------------------------------------|

 B  Bend
 PB Pre Bend
 /  slide up
 \  slide down
 h  hammer-on
 p  pull-off
 ~  vibrato
 +  harmonic
 x  Mute note
============================================================================
Tap to rate this tab
# A B C D E F G H I J K L M N O P Q R S T U V W X Y Z