Song name
# A B C D E F G H I J K L M N O P Q R S T U V W X Y Z

Marty Friedman - Lovesorrow tab

Artist: Marty Friedman
Album: Music for Speeding
song: Lovesorrow

-------------------------------------------------------------------------|
---------------------------------------------------------13-12-13--------|
-----------------------------------------12-12--14----12-----------------|
G-14---12-----12----------------14--12-------------14--------------------|
D----------15----12-15---12--15------------------------------------------|
-------------------------------------------------------------------------|

-------------------------------------------------------------------------|
----------13---------------------12-13-----------------------------------|
-------14----14----12-----/12-/12-------------14-12----------------------|
----------------14-----14---------------------------14-13-12-------------|
-15-15----------------------------------15-15----------------------------|
-------------------------------------------------------------------------|

----------------------------------------------------------------------------|
---------12--13---12-13------12-12/13-13/15-15-13---------------------------|
-12-------------12--------14------------------------------------------------|
----15-14-------------------------------------------------------------------|
----------------------------------------------------------------------------|
----------------------------------------------------------------------------|

-------------12--------------------------------------------|
----12-13-15----13-----------------------------------------|
-14---------------14-14p12---------------------------------|
---------------------------14-12---------------------------|
---------------------------------13------------------------|
-----------------------------------------------------------|

Then the March thing


and then
--------------------------------------------------------------12b------|
-----------------------------------------------------12-13-15----------|
------------------------------------------12----12-14-------------14---|
------------12-14--12----12------------14----14------------------------|
-/12--14-15-----------15----14--15b-12---------------------------------|
-----------------------------------------------------------------------|

-------------------------------------------------------------------|
----------13--12h13p12---12-13-12h13p12---12-13--12----------------|
----12-14--------------14---------------14-------------------------|
-14--------------------------------------------------14------------|
-------------------------------------------------------------------|
-------------------------------------------------------------------|


Then the spanish solo

-------------------------------------------------------------------------|
-------------------------------------------------------------------------|
-------------------------------------------------------------------------|
-15--14-15p14-------12-/14---15p14p12------15--14--15p14-------12-/14----|
--------------14--15-----------------14-15--------------14--15-----------|
-------------------------------------------------------------------------|

Then you play the first solo

and then it goes one tone up and.... he goes a little bit crazy
Tap to rate this tab
# A B C D E F G H I J K L M N O P Q R S T U V W X Y Z