Song name
# A B C D E F G H I J K L M N O P Q R S T U V W X Y Z

Misc Computer Games - Mario Theme tab

                 __________Repeat 2x________________
E|--000---0-3---|----------------0--3-5-1-3-0-------|
B|------1-------|1-------0---------------------1-3-0|
G|------------0-|--0---2---3-2-0--------------------|
D|--------------|----2------------------------------|
A|--------------|-----------------------------------|
E|--------------|-----------------------------------|

E|--3-2-1---0---------------3-2-1----0----8-8-8-----|
B|--------4-------1--1-3-----------4----------------|
G|-------------1-2-2--------------------------------|
D|--------------------------------------------------|
A|--------------------------------------------------|
E|--------------------------------------------------|

E|--3-2-1---0-------------------|-------------0-----|
B|--------4-------1---1-3-4-3-1-|--1-1-1-1--3---1---|
G|------------1-2---2-----------|----------------2-0|
D|------------------------------|-------------------|
A|------------------------------|-------------------|
E|------------------------------|-------------------|

E|------------0----------------0---------0-0-0--0-3-|
B|--1-1-1-1-3-------1-1-1-1-3----1------------1-----|
G|----------------------------------2-0-------------|
D|--------------------------------------------------|
A|--------------------------------------------------|
E|--------------------------------------------------|

E|--0-----------1-1----------5-5-5-3-1-0------------|
B|----1--------------0----1---------------1---------|
G|------0---1-2------------------------------2-0----|
D|--------------------------------------------------|
A|--------------------------------------------------|
E|--------------------------------------------------|

E|--0-----------1-1----------1-1-1-1-0--------------|
B|----1--------------0----1--------------3-1--------|
G|------0---1-2-------------------------------------|
D|--------------------------------------------------|
A|--------------------------------------------------|
E|--------------------------------------------------|

After the end you can repeat it over and over again as much as you want.
Tap to rate this tab
 
# A B C D E F G H I J K L M N O P Q R S T U V W X Y Z