Misc Computer Games - Call Of Duty Black Ops - Damned tab

This is the song from Call Of Duty: Black Ops, Zombie mode. You know, when you're in the 
mode lobby, you hear this song. I figured since there's no other tab on the internet, 
I'd do this song. I did this all by ear, so sorry for any mistakes. Only the intro so far.

Standard Tuning (E A D G B e)
(intro piano part)
e|--19-----19-----19------------------|
B|----17-----17-----17----------------|
G|------16-----16---------------------|repeat twice
D|------------------------------------|
A|------------------------------------|
E|------------------------------------|


e|--20-----20-----20---22-----20-----20---20-|
B|----17-----17-----17---17-----17------17---|
G|------17-----17----------17------17--------|
D|-------------------------------------------|
A|-------------------------------------------|
E|-------------------------------------------|

And that's all I have for now. It can be played on piano this way too, but obviously, 
play the note instead of the frets, 'cause pianos don't have frets. Any problems, message 
at sethreedrocks@yahoo.com
Tap to rate this tab
 
# A B C D E F G H I J K L M N O P Q R S T U V W X Y Z