Song name
# A B C D E F G H I J K L M N O P Q R S T U V W X Y Z

Misc Computer Games - The Witcher Theme tab

Believe- The Witcher Theme.

The violin intro for guitar.

e------22-20--17--18--20-----------|
H--20--------------------20--------|
G----------------------------------|
D----------------------------------|
A----------------------------------|
E----------------------------------|

e--------22-20--17--18--17---------------|
H--18/20-------------------20-18-18--20--|
G----------------------------------------|
D----------------------------------------|
A----------------------------------------|
E----------------------------------------|

e-----17-18-20-22--20-18-17-----18--17-------------------------------|
H--20-----------------------18---------20-18------20-----------------|
G---------------------------------------------19------19-17------19--|
D------------------------------------------------------------20------|
A--------------------------------------------------------------------|
E--------------------------------------------------------------------|

e-----17-18-20-22--20-18-17-----18--17----------------|
H--20-----------------------18---------20-18------20--|
G---------------------------------------------19------|
D-----------------------------------------------------|
A-----------------------------------------------------|
E-----------------------------------------------------|
Tap to rate this tab
 
# A B C D E F G H I J K L M N O P Q R S T U V W X Y Z