Song name
# A B C D E F G H I J K L M N O P Q R S T U V W X Y Z

Misc Computer Games - League Of Legends Theme tab

Okay, first tab, don't hate.
I figured out how to play it after watching this guy: 
http://www.youtube.com/watch?v=hYFq1A4SG2A

This is more of a simple version.

So as stated in the video, the chords are:

Chords:
| Em | C | D | Am | F | Am | Bm 


Tabs:

Andante, piano

|-----0---2-3--7--3-2-----------------------|
|-0-3-0-----5-------3--3---1-0-1------------|
|-----0-----5-------2--2-------2------------|
|-----2-----5-------0-----------------------|
|-----2-----3------------------0------------|
|-----0-------------------------------------|


|-0-3-5----7-8----8-10----10--12------------|
|------------5-5-----7-7------12------------|
|--------------5-------7------12------------|
|----------------------------(14)-----------|
|----------------------------(14)-----------|
|-----1------5-------7-------(12)-----------|


Tap to rate this tab
# A B C D E F G H I J K L M N O P Q R S T U V W X Y Z