Song name
# A B C D E F G H I J K L M N O P Q R S T U V W X Y Z

Misc Computer Games - Legend Of Zelda - Ballad Of The Goddess tab

#----------------------------------PLEASE NOTE--------------------------------#
#This file is the author's own work and represents their interpretation of the#
#song. You may only use this file for private study, scholarship, or research.#
#-----------------------------------------------------------------------------#
#-- File created with Instab - http://www.pconline.com/~smcarey/instab.html --#
#-----------------------------------------------------------------------------#

Author/Artist: Nintendo/Koji Kondo
Title: Skyward Sword Main Theme/Ballad of the Goddess
m mute
A arpeggio

Arranged for Guitar
Standard Tuning

---|------------------20--22---------------------------------------------|----|
---|-15------18--20---18-------20--17---15---20---17--15--13--15--20--17-|----|
---|-14--14-----------17-------17-------12---17-------12----------17-----|----|
---|-12--12-----------17-------17-------12---17-------12----------17-----|----|
---|-12--12--------------------17-------12---17-------12----------17-----|----|
---|---------------------------------------------------------------------|----|
     A   A  Intro     A        A        A    A        A           A

--|---------------------|---------------------|--|---------------|------------|
--|---------------------|---------------------|--|---------------|------------|
--|---------------------|---------------------|--|---------------|------------|
--|---------------------|---------------------|--|---------------|------------|
--|--5---0-5-0-5-0-5-0--|-0-5---0-5-0-5-0-5-0-|--|-0-5--0-5-0-5--|------------|
--|---------------------|---------------------|--|---------------|------------|
   PreMain                                                     m

----|--------------------------------------------------------|--|-------------|
----|--------------------------------------------------------|--|-------------|
----|--------------------------------------------------------|--|-------------|
----|--------------------------------------------------------|--|-------------|
----|-5---7-8-10---15--17--10--7--5---10--7--5-3-5--10---7---|--|-------------|
----|--------------------------------------------------------|--|-------------|
    Main (Play it backwards for zelda's lullaby)

----|---------------------------------------------|----17---|-----------------|
----|---------------------------------------------|---------|-----------------|
----|-14--12p10--10-9--10h12--7--5--7-7--9--0-----|---------|-----------------|
----|------------------------------------------7--|---------|-----------------|
----|---------------------------------------------|---------|-----------------|
----|---------------------------------------------|---------|-----------------|
    Interlude

----|-------------------------------------------------|-----------------------|
----|-------------------------------------------------|-----------------------|
----|-7-----------------------------------------------|-----------------------|
----|-7-----------------------------------------------|-----------------------|
----|-5-----------------------7-8-10---15--17---17----|-----------------------|
----|-------------------------------------------------|-----------------------|
  End Pick...................
Tap to rate this tab
# A B C D E F G H I J K L M N O P Q R S T U V W X Y Z