Song name
# A B C D E F G H I J K L M N O P Q R S T U V W X Y Z

Modest Mouse - Breakthrough tab

----------------------------------------------------------------------------
		         BREAKTHROUGH - Modest Mouse
----------------------------------------------------------------------------
Tabbed by Evan Kindley

The chord progression for the entire song is C G F D#

Solo:
E -----------------|
B -----------------|
G ---------3-1-0---|
D ----1-1----------|   x2
A ---3-3-----------|
E -----------------|

E ------------------|
B ------------------|
G ---0-1-0----------|
D ------------------|  x4
A ------------------|
E ------------------|

E -------------------------|
B -------------------------|
G--------------------------|
D ---3-1-0-3-1-0-3-1-------|
A -------------------------|
E -------------------------|

E -----------------------------------------------|
B -----------------------------------------------|
G ---3-5-3-5-3-5-8---3-5-3-5-1-3-1-3-------------|
D -----------------------------------------------|
A -----------------------------------------------|
E -----------------------------------------------|

E ----------------------------------------------|
B ----------------------------------------------|
G ---3-5-3-5-3-5-8---3-5-3-5--------------------|
D ------------------------------------3---3-----|
A -------------------------------------3-3-3----|
E --------------------------------------3----3--|
Tap to rate this tab
# A B C D E F G H I J K L M N O P Q R S T U V W X Y Z