Song name
# A B C D E F G H I J K L M N O P Q R S T U V W X Y Z

Municipal Waste - Born To Party tab

-------------------------------------------------------------------------------
			     BORN TO PARTY - Municipal Waste
-------------------------------------------------------------------------------
Tabbed by: pub
Email: www.myspace.com/boardsnroses

Tuning: standard

i tabbed this song without my guitar at hand so to the best of my knowledge this should 
pretty accurate so e-mail me/comment if you have any commnents or suggestions!
kthxbi.

e|-------------------------------------------------------------------------|
B|-------------------------------------------------------------------------|
G|-------------------------------------------------------------------------|
D|-4-444444444444444--4-4-4------2-222222222222222--2-2-2------------------|
A|-4-444444444444444--4-4-4------2-222222222222222--2-2-2------------------|
E|-2-222222222222222--2-2-2------0-000000000000000--0-0-0------------------|


  now remember, this is municipal waste, so it's played pretty fast! ;)
e|-------------------------------------------------------------------------|
B|-------------------------------------------------------------------------|
G|-------4----------------------------------4------------------------------|
D|-66-6--44--7-6----------------------66-6--44--7-6----------------[x2]----|
A|-66-6--24--7-6----------------------66-6--24--7-6------------------------|
E|-44-4---2--5-444444444--------------44-4---2--5-4[44444444]--------------|
                xxxxxxxx


 'smoking your weed, smashing your face...'
e|-------------------------------------------------------------------------|
B|-------------------------------------------------------------------------|
G|-8-8-8-9-8-------------9------8----898-----------9-----------------------|
D|-8-8-8-9-8---9-9-9-11--9------8----898---9----9119-----------------------|
A|-6-6-6-7-6---9-9-9-11--7------66666676---9----9117-----------------------|
E|-------------7-7-7-9---------------------7777779-------------------------|
                                 xxxx       xxxx

 'blah blah fast singing blah blah blah...smoking your weed, smashing...'
e|-------------------------------------------------------------------------|
B|-------------------------------------------------------------------------|
G|-------4----------------------------------8-8-8-9-8------------9---------|
D|-66-6--44--7-6----------[x4]--------------8-8-8-9-8---9-9-9-11-9--[x2]---|
A|-66-6--24--7-6----------------------------6-6-6-7-6---9-9-9-11-7---------|
E|-44-4---2--5-444444444--------------------------------7-7-7-9------------|
                xxxxxxxx                    ^ play a little slower ^
                                               than the last time
 'municipal waste is gonna fuck you up!'
e|-------------------------------------------------------------------------|
B|-------------------------------------------------------------------------|
G|-------4----------[open beer]--------------------------------------------|
D|-6666-444--7--6-6-6-----[dou dou plat dou dou plat]----------------------|
A|-6666-424--7--6-6-6------------------------------------/xxxxxxxxxxxxxxxx-|
E|-4444-2-2--5--4-4-4------------------------------------/xxxxxxxxxxxxxxxx-|
                                                            pick slide!

 'municipal waste is gonna.....whoaaaaa................fuck you up!'
e|-------------------------------------------------------------------------|
B|-------------------------------------------------------------------------|
G|------4-------------------------------------------4-4--------------------|
D|--6---4--44-7-6---------[x4]-----4----------66-6--444--7-6-6-6-----------|
A|--6---2--44-7-6------------------4----------66-6--242--7-6-6-6-----------|
E|--444----22-5-44444444-----------2----------44-4---2---5-4-4-4-----------|
     xx          xxxxxxx
    [ this section played twice  ^^ ]         [ ^   ender   ^ ]


                      well, folks, there you have it!


| /  slide up
| \  slide down
| h  hammer-on
| p  pull-off
| ~  vibrato
| +  harmonic
| x  Mute note
| [ ] Damp note
(don't completely press down on note)
===============================================================================
Tap to rate this tab
 
# A B C D E F G H I J K L M N O P Q R S T U V W X Y Z