Song name
# A B C D E F G H I J K L M N O P Q R S T U V W X Y Z

Municipal Waste - Executioner tab

-------------------------------------------------------------------------------
			     Executioner - Municipal Waste
-------------------------------------------------------------------------------
Tabbed by:Bam_12354
Email:bam_12354@hotmail.com

Tuning:EADGBe

(Intro)
E|---------------------------------------------------------------------------|
B|---------------------------------------------------------------------------|
G|---------------------------------------------------------------------------|
D|---------------------------------------------------------------------------|
A|--8-----7-5-4~---8-----7-5-2--7~-------------------------------------------|
E|--6-0-0-5-3-2~---6-0-0-5-3-0--5~-------------------------------------------|
Pm    - -            - -

E|---------------------------------------------------------------------------|
B|---------------------------------------------------------------------------|
G|---------------------------------------------------------------------------|
D|---------------------------------------------------------------------------|
A|--8-----7-5-4~---8-----7-5-2-2-2-2-2-2-2-2-2-------------------------------|
E|--6-0-0-5-3-2~---6-0-0-5-3-0-0-0-0-0-0-0-0-0-------------------------------|
Pm    - -            - -     - - - - - - - -

E|---------------------------------------------------------------------------|
B|---------------------------------------------------------------------------|
G|---------------------------------------------------------------------------|
D|---------------------------------------------------------------------------|
A|---------------------------------------------------------------------------|
E|--0-0-0-0-0-0-0-0-0-0-0-0-0-0-0-0-0-0-0-0-0-0-0-0-0-0-0-0-0-0-0-0-0-0-0-0--|
Pm  - - - - - - - - - - - - - - - - - - - - - - - - - - - - - - - - - - - -
 
E|---------------------------------------------------------------------------|
B|---------------------------------------------------------------------------|
G|---------------------------------------------------------------------------|
D|-10/9---7/9--7/9------------10/7---7/9-------------------------------------|   x2
A|-8/-7---5/7--5/7------------8-/5---5/7-10/9--------------------------------|
E|------0----------0-0-000-000-----0-----8-/7----7-7-777-777-----------------|

e|---------------------------------------------------------------------------|
B|---------------------------------------------------------------------------|
G|---------------------------------------------------------------------------|
D|-10/9---7/9---7---7/9-------------10/9---7/9---7---------------------------|
A|-8-/7---5/7---5---5/7-------------8-/7---5/7---5---10/9--------------------|
E|------0-----0---0-----0-0-000-000------0-----0---0-8-/7-7-777-777----------|
Pm      -     -   -     - - --- ---      -     -   -      - --- ---
e|---------------------------------------------------------------------------|
B|---------------------------------------------------------------------------|
G|---------------------------------------------------------------------------|
D|-10/9---7/9---7---7/9-------------10/9---7/9---7---------------------------|
A|-8-/7---5/7---5---5/7-------------8-/7---5/7---5---10/9------8-7-----------|
E|------0-----0---0-----0-0-000-000------0-----0---0-8-/7-77-7----10-8-7~----|
Pm      -     -   -     - - --- ---      -     -   -      --
e|---------------------------------------------------------------------------|
B|---------------------------------------------------------------------------|
G|---------------------------------------------------------------------------|
D|-10/9---7/9---7---7/9-------------10/9---7/9---7---------------------------|
A|-8-/7---5/7---5---5/7-------------8-/7---5/7---5---10/9--------------------|
E|------0-----0---0-----0-0-000-000------0-----0---0-8-/7-7-777-777----------|
Pm      -     -   -     - - --- ---      -     -   -      - --- ---


e|---------------------------------------------------------------------------|
B|---------------------------------------------------------------------------|
G|---------------------------------------------------------------------------|
D|-10/9---7/9---7---7/9-------------10/9---7/9---7---------------------------|
A|-8-/7---5/7---5---5/7-------------8-/7---5/7---5---10/9------8-7-----9-----|
E|------0-----0---0-----0-0-000-000------0-----0---0-8-/7-77-7----10-8-7~----|
Pm      -     -   -     - - --- ---      -     -   -      --
e|---------------------------------------------------------------------------|
B|---------------------------------------------------------------------------|
G|---------------------------------------------------------------------------|
D|------------9----9---10/9-12/10----------9------9-----------7-9-10/9-------|
A|---8-7------7----7---8-/7-10/8--8/7------7-7777-7-777-5-----5-7-8-/7-------|
E|-7-----10-8---00---0-----0----------10-8--------------3-3333---------------|
Pm              --   -     -                 ----   ---   ----
e|---------------------------------------------------------------------------|
B|---------------------------------------------------------------------------|
G|---------------------------------------------------------------------------|
D|-9------9-----10/9--12/10--10/9--9------9-----------7-9-10/9---------------|
A|-7-7777-7-777-8-/7--10/8---8-/7--7-7777-7-777-5-----5-7-8-/7---------------|
E|----------------------------------------------3-3333-----------------------|
Pm   ----   ---                      ----   ---   ----
e|---------------------------------------------------------------------------|
B|---------------------------------------------------------------------------|
G|---------------------------------------------------------------------------|
D|-9-----9-----9-7-----7-----7-10-----10-----10------------------------------|  X2
A|-7-777-7-777-7-5-555-5-555-5-8--888-8--888-8--7-8-7-5-7-5-3~---------------|
E|---------------------------------------------------------------------------|
Pm   ---   ---     ---   ---      ---    ---

E|---------------------------------------------------------------------------|
B|---------------------------------------------------------------------------|
G|---------------------------------------------------------------------------|
D|-10/9-7/9------------------------------------------------------------------|
A|-8-/7-5/7-2~---------------------------------------------------------------|
E|----------0~---------------------------------------------------------------|

************************************

| /   slide up
| \   slide down
| h   hammer-on
| p   pull-off
| ~   vibrato
| +   harmonic
| x   Mute note
| b   Bend
| pb  Pre-bend
| br  Bend release
| pbr Pre-bend release
| brb Bend release bend

************************************
Tap to rate this tab
 
# A B C D E F G H I J K L M N O P Q R S T U V W X Y Z