Song name
# A B C D E F G H I J K L M N O P Q R S T U V W X Y Z

Municipal Waste - Black Ice tab

Municipal Waste - Black Ice
Hazardous Mutation (2005)
Tabbed by ruker
Standard Tuning EADGBE

--------------
Key:
--------------
/  Slide Up
\  Slide Down
--------------


Intro (0:00)
 Guitars (Left & Right)
||--------------------------------------------------------------------------------------||
||--------------------------------------------------------------------------------------||
||--------------------------------------------------------------------------------------||
||-----------------------11-11---9--11-11----------------------------11-11---9--11------||
||-----------------------9--9----7--9--9-----------------------------9--9----7--9-------||
||--------------------------------------------------------------------------------------||
|                                                                                        |
|Bass                                                                                    |
||--------------------------------------------------------------------------------------||
||--------------------------------------------------------------------------------------||
||-9--9----7--10-9----7--9--9----7--9--9----7--9--9----7--10-9----7--9--9----7--9-------||
||--------------------------------------------------------------------------------------||


Verse (0:04)                                    4x
||------------------------------------------------||
||*----------------------------------------------*||
||------------------------------------------------||
||--11-11---9--12\11---9--11-11---9--11-11---9----||
||*-9--9----7--10\9----7--9--9----7--9--9----7---*||
||------------------------------------------------||
|                                                  |
|                                                  |
||------------------------------------------------||
||*----------------------------------------------*||
||*----------------------------------------------*||
||--2--2----0--3--2----0--2--2----0--2--2----0----||


Chorus (0:11)
||-------------------------------------------------|
||*------------------------------------------------|
||-------------------------------------------------|
||--7--7----7-/9-\7-/9-\7--7--7----7-/9-\7-/9-\7---|
||*-9--9----5-/7-\5-/7-\5--9--9----5-/7-\5-/7-\5---|
||-------------------------------------------------|
|                                                  |
|                                                  |
||-------------------------------------------------|
||*------------------------------------------------|
||*-9--9----5--7--5--7--5--9--9----5--7--5--7--5---|
||-------------------------------------------------|


|------------------------------------------------||
|-----------------------------------------------*||
|------------------------------------------------||
|-7--7----7-/9-\7-/9-\7--4--4----4--7--7----7----||
|-9--9----5-/7-\5-/7-\5--2--2----2--5--5----5---*||
|------------------------------------------------||
|                                                 |
|                                                 |
|------------------------------------------------||
|-----------------------------------------------*||
|-9--9----5-/7-\5-/7-\5--2--2----2--5--5----5---*||
|------------------------------------------------||


Outro (0:19)
||----------------------------------------------|
||----------------------------------------------|
||----------------------------------------------|
||-11-11---9--12\11---9--11-11---9--11-11---9---|
||-9--9----7--10\9----7--9--9----7--9--9----7---|
||----------------------------------------------|
|                                               |
|                                               |
||----------------------------------------------|
||----------------------------------------------|
||----------------------------------------------|
||-2--2----0--3--2----0--2--2----0--2--2----0---|


|------------------------------------------||
|------------------------------------------||
|------------------------------------------||
|-11--11--9---12--11--9---11--11--9---11---||
|-9---9---7---10--9---7---9---9---7---9----||
|------------------------------------------||
|                                           |
|                                           |
|------------------------------------------||
|------------------------------------------||
|------------------------------------------||
|-2---2---0---3---2---0---2---2---0---2----||
Tap to rate this tab
 
# A B C D E F G H I J K L M N O P Q R S T U V W X Y Z