Song name
# A B C D E F G H I J K L M N O P Q R S T U V W X Y Z

New Found Glory - Dressed To Kill tab

Help us improve GuitareTab! Take a short survey!
Grupo: New Found Glory
Titulo: Dressed To Kill
Intro
Guitar 1
e|----------||-----------12-----10-9------|----------|
B|----------||-------10-----10--------X3--|----------|
G|----------||--9-9-----------------------|----------|
D|-0-0-2-2--||----------------------------|--2---4---|
A|-0-0-2-2--||----------------------------|--2---4---|
E|-0-0-2-2--||----------------------------|--0---2---|
             (__________________X2___________________)
Guitar 2
e|-------------------------------------------------------|-----------------|
B|-------------------------------------------------------|-----------------|
G|-------------------------------------------------------|-----------------|
D|--2---4--9-9-9-9-9-9--8-8-8-8-8-8-8--6-6-6-6-6-6-6--x2-|--2---4----9~~~--|  
A|--2---4--9-9-9-9-9-9--8-8-8-8-8-8-8--6-6-6-6-6-6-6-----|--2---4----9~~~--|
E|--0---2--7-7-7-7-7-7--6-6-6-6-6-6-6--4-4-4-4-4-4-4-----|--0---2----7~~~--|
Verse
e|------------------------------------|----------------------------------------|
B|------------------------------------|----------------------------------------|
G|------------------------------------|----------------------------------------|
D|--9-9-9-/-8-8-8-/-6-6-6-/-4-4-4-----|-9-9-9-/-8-/-11/-8-/-6-/-9-/-6-/-4-4-4--|  
A|--9-9-9-/-8-8-8-/-6-6-6-/-4-4-4--x2-|-9-9-9-/-8-/-11/-8-/-6-/-9-/-6-/-4-4-4--|
E|--7-7-7-/-6-6-6-/-4-4-4-/-2-2-2-----|-7-7-7-/-6-/-9-/-6-/-4-/-7-/-4-/-2-2-2--| 

e|-------------------------------------------------------------|
B|-------------------------------------------------------------|
G|-------------------------------------------------------------|
D|--9-9-9-9-9-9--8-8-8-8-8-8-8--6-6-6-6-6-6-6--4-4-4-4-4-4-4---|  
A|--9-9-9-9-9-9--8-8-8-8-8-8-8--6-6-6-6-6-6-6--4-4-4-4-4-4-4---|
E|--7-7-7-7-7-7--6-6-6-6-6-6-6--4-4-4-4-4-4-4--2-2-2-2-2-2-2---|
Pre Chorus
e|-------------------------------------------------------------|
B|-------------------------------------------------------------|
G|-------------------------------------------------------------|
D|--2--2--6--4---2--2--6--4---2--2--6--4---2--2--6-6-6--4------|  
A|--2--2--6--4---2--2--6--4---2--2--6--4---2--2--6-6-6--4------|
E|--0--0--4--2---0--0--4--2---0--0--4--2---0--0--4-4-4--2------|
Chorus 1
Guitar 1
e|------------------------------------------------------|--------|
B|------------------------------------------------------|--------|
G|------------------------------------------------------|--------|
D|-9-9-9-9-9-9--8-8-8-8-8-8-8--6-6-6-6-6-6-6--2---4-----|--9~~~--|
A|-9-9-9-9-9-9--8-8-8-8-8-8-8--6-6-6-6-6-6-6--2---4--x4-|--9~~~--|
E|-7-7-7-7-7-7--6-6-6-6-6-6-6--4-4-4-4-4-4-4--0---2-----|--7~~~--|
Guitar 2
e|-----------------------------------------------------|---------12-----10-9-----|-------|--------|
B|-----------------------------------------------------|------10-----10-------X3-|-------|--------|
G|-----------------------------------------------------|-9-9---------------------|-------|--------|
D|-9-9-9-9-9-9--8-8-8-8-8-8-8--6-6-6-6-6-6-6--2---4----|-------------------------|-2---4-|--9~~~--|
A|-9-9-9-9-9-9--8-8-8-8-8-8-8--6-6-6-6-6-6-6--2---4-x2-|-------------------------|-2---4-|--9~~~--|
E|-7-7-7-7-7-7--6-6-6-6-6-6-6--4-4-4-4-4-4-4--0---2----|-------------------------|-0---2-|--7~~~--|
                                                       (_______________X2________________)
Post Chorus
e|----------------------|
B|----------------------|
G|----------------------|
D|-6~~~--4~~~--2~--4~~--|
A|-6~~~--4~~~--2~--4~~--|
E|-4~~~--2~~~--0~--2~~--|
Interlude
e|------------------------------------|---------------------------------------------------|
B|------------------------------------|---------------------------------------------------|
G|------------------------------------|---------------------------------------------------|
D|--9~~~~~-------222-2-2-222----------|--9~~~~~~--------222-2-2-222-2-2-222-2-2--2-2-2-2--|
A|--9~~~~~-------222-2-2-222-----x3---|--9~~~~~~--------222-2-2-222-2-2-222-2-2--2-2-2-2--|
E|--7~~~~~-------000-0-0-000----------|--7~~~~~~--------000-0-0-000-0-0-000-0-0--0-0-0-0--|
End
e|----------|
B|----------|
G|----------|
D|--9~~~~~--|
A|--9~~~~~--|
E|--7~~~~~--|

Intro
Verse
Pre Chorus
Chorus
Verse
Pre Chorus
Chorus
Post Chorus
Interlude
Chorus
Post Chorus
End
Related for Dressed To Kill tab