Guitaretab - guitar tabs
Song name
# A B C D E F G H I J K L M N O P Q R S T U V W X Y Z
Home / P / Pax 217 / Psa tab

Pax 217 - Psa tab

Hey, I was lookin' for this tab everywhere!!! 
     So I said Freak It, and tabbed it myself!!!
          Hope your playing is pleasant!!!
               The official pax217 website is: www.pax217.com
[ Tab from: http://www.guitaretab.com/p/pax-217/121194.html ]
e-----------------------------------------------------
B-----------------------------------------------------
G------0-0--0-0---------------------------------------
D------5-5--0-0---------------------------------------(x7)
A------5-5--0-0---------------------------------------
E-----------------------------------------------------
                     
          I--------------------I        I--------I         I-----I 
e---------(13-12-13-15-13-12-13)--------------------------------------
B------15(x2)---------------------12(x2)------------------------------
G---------------------------------------------------------------15(x2)
D---------------------------------------------------------------------
A---------------------------------------------------------------------
E---------------------------------------------------------------------

Well thats basically the beginning, and i will have the whole song for you LATa!!

                                              -PEACE-
Related for Psa tab