Pepper - Mirror tab

-------------------------------------------------------------------------------
			     MIRROR - Pepper
-------------------------------------------------------------------------------
Tabbed by: diegod
Email: diego@ieatcatsforfun.com

Tuning: Standard (EADGBe)

Intro
e|------7--------|
B|--7h9---9p7----|
G|------------9--|
D|---------------|
A|---------------|
E|---------------|

Main Riff
e|------------------------------------------------|
B|------------------------------------------------|
G|------------------------------------------------|
D|-----------9-9-9-9--------------------9-9-9-9---|
A|--7-----7--------------7--9--7-6----6-----------|
E|------------------------------------------------|
    *     *  * * * *     *  *  * *    * * * * *
e|------------------------------------------------|
B|------------------------------------------------|
G|------------------------------------------------|
D|-----------6-6-6-6--------------------6-6-6-6---|
A|-6--4----4---------------------6----6-----------|
E|------------------------------------------------|
   *  *    * * * * *             *    * * * * *


Chords (the same in the whole music)
    E       B       C#m     B
e|--7-------7-------9-------7---------|
B|--9-------7-------9-------7---------|
G|--9-(4x)--8-(4x)--9-(4x)--8-(4x)----|
D|--9-------9-------11------9---------|
A|--7-------9-------11------9---------|
E|--x-------7-------9-------7---------|

The C#m chord can be played in the 4th fret string A, but sounds better for the acoustic 
version that has a riff like that:

e|---7---7---7----7-------7---7---7----7-----------|
B|----9---9----9----9------7---7----7----7---------|
G|-----9---9----9----9------8---8----8----8--------|
D|-------------------------------------------------|
A|-------------------------------------------------|
E|-------------------------------------------------|

e|---9---9---9----9-------7---7---7----7-----------|
B|----9---9----9----9------7---7----7----7---------|
G|-----9---9----9----9------8---8----8----8--------|
D|-------------------------------------------------|
A|-------------------------------------------------|
E|-------------------------------------------------|


************************************

| /   slide up
| \   slide down
| h   hammer-on
| p   pull-off
| ~   vibrato
| +   harmonic
| x   Mute note
| b   Bend
| pb  Pre-bend
| br  Bend release
| pbr Pre-bend release
| brb Bend release bend

************************************
Tap to rate this tab
 
# A B C D E F G H I J K L M N O P Q R S T U V W X Y Z