Song name
# A B C D E F G H I J K L M N O P Q R S T U V W X Y Z

Placebo - Kitty Litter tab

-------------------------------------------------------------------------------
			     PLACEBO - Kitty Litter
-------------------------------------------------------------------------------
Tabbed by: Alex Irae
Email: alexirae@gmail.com

Tuning: D A D G B E


Verse:
E|-----------------------------------------------------------------------|
B|-----------------------------------------------------------------------|
G|--5---7---7/8-8-8-8-8-8-8-8~-8-8-8-8----7---5-5-5-5-5-5-5-5-5-5--------|
D|-----------------------------------------------------------------------|
A|--3---5---5/6-6-6-6-6-6-6-6~-6-6-6-6----5---3-3-3-3-3-3-3-3-3-3--------|
D|-----------------------------------------------------------------------|

E|-----------------------------------------------------------------------|
B|-----------------------------------------------------------------------|
G|--5---7---7/8-8-8-8-8-8-8-8~-8-8-8-8----7---9-9-9-9-9-9-9-9-9-9--------|
D|--------------------------------------------7-7-7-7-7-7-7-7-7-7--------|
A|--3---5---5/6-6-6-6-6-6-6-6~-6-6-6-6----5---7-7-7-7-7-7-7-7-7-7--------|
D|--------------------------------------------7-7-7-7-7-7-7-7-7-7--------|



Pre-Chorus:
E|------------------------------------------|
B|------------------------------------------|
G|-17-17-17--10-12--14--12-12-12-12/14-12---|
D|------------------------------------------|    X3
A|-15-15-15--7--10--12--10-10-10-10/12-10---|
D|------------------------------------------|  

E|----------------------------------------|
B|----------------------------------------|
G|-17-17-17--10-12--14--20-20-20-19-19----|
D|----------------------------------------|
A|-15-15-15--7--10--12--18-18-18-17-17----|
D|----------------------------------------|    



Chorus:
E|-----------------------------------------------------------------------|
B|-----------------------------------------------------------------------|
G|-9-9-9-9-9-9-9-9-9-9-9-9-9-9-9-9---7-7-7-7-7-7-7-7-7-7-7-7-7-7-7-7-----|
D|-7-7-7-7-7-7-7-7-7-7-7-7-7-7-7-7---5-5-5-5-5-5-5-5-5-5-5-5-5-5-5-5-----|
A|-7-7-7-7-7-7-7-7-7-7-7-7-7-7-7-7---5-5-5-5-5-5-5-5-5-5-5-5-5-5-5-5-----|
D|-7-7-7-7-7-7-7-7-7-7-7-7-7-7-7-7---5-5-5-5-5-5-5-5-5-5-5-5-5-5-5-5-----|

E|-----------------------------------------------------------------------|
B|-----------------------------------------------------------------------|
G|-6-6-6-6-6-6-6-6-6-6-6-6-6-6-6-6---5-5-5-5-5-5-5-5-5-5-5-5-5-5-5-5-----|
D|-4-4-4-4-4-4-4-4-4-4-4-4-4-4-4-4---3-3-3-3-3-3-3-3-3-3-3-3-3-3-3-3-----|
A|-4-4-4-4-4-4-4-4-4-4-4-4-4-4-4-4---3-3-3-3-3-3-3-3-3-3-3-3-3-3-3-3-----|
D|-4-4-4-4-4-4-4-4-4-4-4-4-4-4-4-4---3-3-3-3-3-3-3-3-3-3-3-3-3-3-3-3-----|



Post-Chorus:
E|-----------------------------------------------------------|
B|-----------------------------------------------------------|
G|-9-10-9---9-10-9---9-10-9--9-10-9--14-14-14-14-14-14-14----|
D|-----------------------------------------------------------|
A|-7-8--7---7-8--7---7-8--7--7-8--7--12-12-12-12-12-12-12----|
D|-----------------------------------------------------------|

E|-------------------|
B|-------------------|
G|--17-17---13-13----|
D|-------------------|
A|--15-15---11-11----|
D|-------------------|



Tap to rate this tab
# A B C D E F G H I J K L M N O P Q R S T U V W X Y Z