Song name
# A B C D E F G H I J K L M N O P Q R S T U V W X Y Z

Placebo - Pure Morning chords

=====================================================================
---------------------Pure Morning - Placebo-------------------------
====================================================================
Tabbed By: Daniel Manning
Email: dm_is_dm94@hotmail.com
=====================================================================
Tuning - Drop Eb
Effects:
Guitar 1 - Overdrive/Distortion with some vibrato(just mess around with it youl find it)
Guitar 2 - For the verses - Medium Distorted, For the Chorus - Heavy sustained distortion
Bass - Alot of sustain distortion(Play around for the fuzz effect) Big Muff   Pedal should do it.
=====================================================================

Guitar 1  - Play throughout the whole song
===========================================================================
Through the Verses           Through the Chorus
---------------------       --------------------|
---------------------       --------------------|
---------------------       --------------------|
---------------------       --------------------|
6-----6-----6-----6--       6-----6-----6-----6-|
---------------------       0-----0-----0-----0-|
1  +  2  +  3  +  4         1  +  2  +  3  +  4
===========================================================================


Guitar 2 - Comes in on the 7th time of the 1st guitar
============================================================================
-----------------------------------------------------------------------------|
-----8-------8---------8-------------------8-8------8---------8--------------|
--8-------8------8--8---------5--5----------------8------8--8--------5-5-----|
-------8-------8---------8---------6-----------------------------8---------6-|
6---------------------------------------6------------------------------------|
-----------------------------------------------------------------------------|
1    +    2    +    3    +    4    +    1    +    2    +    3    +    4    +
============================================================================
X1

Verse
============================================================================
-----------------------------------------------------------------------------|
-----8-------8---------8-------------------8-8------8---------8--------------|
--8-------8------8--8---------5--5----------------8------8--8--------5-5-----|
-------8-------8---------8---------6-----------------------------8---------6-|
6---------------------------------------6------------------------------------|
-----------------------------------------------------------------------------|
1    +    2    +    3    +    4    +    1    +    2    +    3    +    4    +
============================================================================
A friend in needs a friend in deed      A friend with weed is better ........
X4

Chorus
============================================================================
---------------------------------------------------------------------------|
---------------------------------------------------------------------------|
---------------------------------------------------------------------------|
13----13---13---131313131313----------13---13---13---1313131313------------|
x-----x----x----x-x-x-x-x-x--101011---x----x----x----x-x-x-x-x--3----3--4--|
0-----0----0----0-0-0-0-0-0--0-0-0----0----0----0----0-0-0-0-0--0----0--0--|
1     +    2    +   3   +    4   +    1    +    2    +   3   +    4     +
============================================================================
X2

=================
----------------|
----------------|
----------------|
----------------|
6---------------|
0---------------|   Let Ring
=================

Everything else is the same  but the last chorus goes for longer
The last chord:
====================
Play on both guitars
--------------------------|
--------------------------|
12------------------------|
x-------------------------|
10------------------------|
0-------------------------|     Let ring
====================


x - Dead string (Finger mute)
Tap to rate this tab
 
# A B C D E F G H I J K L M N O P Q R S T U V W X Y Z