Song name
# A B C D E F G H I J K L M N O P Q R S T U V W X Y Z

Rammstein - Mein Land tab

-------------------------------------------------------------------------------
			     MEIN LAND - Rammstein
-------------------------------------------------------------------------------
Tabbed by: ironmanben
Email: bentrooper@gmail.com

Tuning: d A F C G C (Drop C)


guitar 1 - Paul Landers - rhythm (left speaker)
guitar 2 - Richard Z. Kruspe - rhythm (right speaker)
guitar 3 - Richard Z. Kruspe - lead (center) (plays only during bridge 2)

Parts that say "keyboard only" are not tabbed.


intro:
d|---------------------------------|
A|---------------------------------|
F|-------4-2-------------------1-1-|
C|-----1---------1---1-2-2-4-4-----|
G|-2-------------------------------|
C|---------------------------------|
-|                                 |
d|-2---4---5-----5---5---4-2---5---|
A|-4---5---7-----7---7---5-4---7---|
F|---------------------------------|
C|---------------------------------|
G|---------------------------------|
C|---------------------------------|
This is that little surf-rock riff that's in the
beginning of the music video. I don't think Rammstein
actually plays it, but it's fun anyway.


main riff:
d|---------------------|----------------------|
A|---------------------|----------------------|
F|---------------------|----------------------|
C|-12-13-12-------10-12|-13---12---10-13-12---|
G|-x--x--x--------x--x-|-x----x----x--x--x----|
C|-12-13-12-0-0-0-10-12|-13-0-12-0-10-13-12-0-|
-|          + + +      |                      |
d|---------------------|----------------------|
A|---------------------|----------------------|
F|---------------------|----------------------|
C|---------------------|----------------------|
G|---------------------|----------------------|
C|-12h13-0-0-0-0-10-12-|-13-0-12-0-10-13-12-0-|


d|---------------------|-------------------------|
A|---------------------|-------------------------|
F|------------------8--|-8--8--5--5--5--5--6--6--|
C|-12-13---------12-x--|-x--x--x--x--x--x--x--x--|
G|-x--x----------x--6--|-6--6--3--3--3--3--4--4--|
C|-12-13-0-0-0-0-12----|-------------------------|
-|       + + + +       |                         |
d|---------------------|-------------------------|
A|---------------------|-------------------------|
F|---------------------|-------5--5--5--5--5--5--|
C|---------------------|-------x--x--x--x--x--x--|
G|---------------------|-------3--3--3--3--4--4--|
C|-12h13-0-0-0-0-12-13-|-13-13-------------------|

Paul Landers' harmonics (indicated by "+") are created by
sliding the picking hand along the string while playing 
the open note, not pressing hard enough to mute, but just
enough to distort the sound.  Check out Marilyn Manson's 
"We're From America" if you want to head a great example 
of this that's easier to pick out.

chorus:
d|---------------------|----------------------|
A|---------------------|----------------------|
F|---------------------|----------------------|
C|-12-13-12-------10-12|-13---12---10-13-12---|
G|-x--x--x--------x--x-|-x----x----x--x--x----|
C|-12-13-12-0-0-0-10-12|-13-0-12-0-10-13-12-0-|
-|          + + +      |                      |
d|---------------------|----------------------|
A|---------------------|----------------------|
F|---------------------|----------------------|
C|---------------------|----------------------|
G|---------------------|----------------------|
C|-12h13-0-0-0-0-10-12-|-13-0-12-0-10-13-12-0-|


d|---------------------|-------------------------|
A|---------------------|-------------------------|
F|------------------8--|-8--8--5--5--5--5--6--6--|
C|-12-13---------12-x--|-x--x--x--x--x--x--x--x--|
G|-x--x----------x--6--|-6--6--3--3--3--3--4--4--|
C|-12-13-0-0-0-0-12----|-------------------------|
-|       + + + +       |                         |
d|---------------------|-------------------------|
A|---------------------|-------------------------|
F|---------------------|-------5--5--5--5--5--5--|
C|---------------------|-------x--x--x--x--x--x--|
G|---------------------|-------3--3--3--3--4--4--|
C|-12h13-0-0-0-0-12-13-|-13-13-------------------|


d|---------------------|----------------------|
A|---------------------|----------------------|
F|---------------------|----------------------|
C|-12-13-12-------10-12|-13---12---10-13-12---|
G|-x--x--x--------x--x-|-x----x----x--x--x----|
C|-12-13-12-0-0-0-10-12|-13-0-12-0-10-13-12-0-|
-|          + + +      |                      |
d|---------------------|----------------------|
A|---------------------|----------------------|
F|---------------------|----------------------|
C|---------------------|----------------------|
G|---------------------|----------------------|
C|-12h13-0-0-0-0-10-12-|-13-0-12-0-10-13-12-0-|


d|-----------------|-----------------|
A|-----------------|-----------------|
F|-----------------|-----------------|
C|-----------------|-----------------|
G|-----------------|-----------------|
C|-3-5-5-5-3-5-5-5-|-3-5-5-5-3-5-5-5-|
-|                 |                 |
d|-----------------|-----------------|
A|-----------------|-----------------|
F|-----------------|-----------------|
C|-----------------|-----------------|
G|-----------------|-----------------|
C|-3h5-5-5-3h5-5-5-|-3h5-5-5-3h5-5-5-|


verse 2:
d|---------------------|----------------------|
A|---------------------|----------------------|
F|---------------------|----------------------|
C|---------------------|----------------------|
G|---5-5-5-5-5-5-5-5---|---5-5-5-5-5-5-5-5----|
C|---0-0-0-0-0-0-0-0---|---0-0-0-0-0-0-0-0----|
-| x x x x x x x x     |   x x x x x x x x    |
d|---------------------|----------------------|
A|---------------------|----------------------|
F|---------------------|----------------------|
C|---------------------|----------------------|
G|---------------------|----------------------|
C|-12h13-0-0-0-0-10-12-|-13-0-12-0-10-13-12-0-|
   x     x x x x x  x    x  x x  x x  x  x  x 


d|---------------------|-------------------------|
A|---------------------|-------------------------|
F|---------------------|-------------------------|
C|---------------------|-------------------------|
G|---5-5-5-5-5-5-5-5---|-----5-5-5-5-5-5-5-5-----|
C|---0-0-0-0-0-0-0-0---|-----0-0-0-0-0-0-0-0-----|
-|   x x x x x x x x   |     x x x x x x x x     |
d|---------------------|-------------------------|
A|---------------------|-------------------------|
F|---------------------|-------------------------|
C|---------------------|-------------------------|
G|---------------------|-------------------------|
C|-12h13-0-0-0-0-12-13-|-13-13-10-10-10-10-11-11-|


bridge 1:
 | x3                              | x1                                |
d|---------------------------------|-----------------|-----------------|
A|---------------------------------|-----------------|-----------------|
F|---------------------------------|-----------------|-----------------|
C|-0h1---------0h1---------0h1-----|-3-5-5-5-5-5-5-5-|-3-5-5-5-3-5-5-5-|
G|-0h1---------0h1---------0h1-----|-3-5-5-5-5-5-5-5-|-3-5-5-5-3-5-5-5-|
c|-0h1-0-0-0-0-0h1-0-0-0-0-0h1-0-0-|-3-5-5-5-5-5-5-5-|-3-5-5-5-3-5-5-5-|
-|     x x x x     x x x x     x x |                 |                 |
d|---------------------------------|-----------------|-----------------|
A|---------------------------------|-----------------|-----------------|
F|---------------------------------|-----------------|-----------------|
C|-0h1---------0h1---------0h1-----|-3/5-5-5-5-5-5-5-|-3/5-5-5-3/5-5-5-|
G|-0h1---------0h1---------0h1-----|-3/5-5-5-5-5-5-5-|-3/5-5-5-3/5-5-5-|
c|-0h1-0-0-0-0-0h1-0-0-0-0-0h1-0-0-|-3/5-5-5-5-5-5-5-|-3/5-5-5-3/5-5-5-|
       x x x x     x x x x     x x



bridge 2:
d|-----------------------------------------------------------------|
A|-----------------------------------------------------------------|
F|-----------------------------------------------------------------|
C|-0---------------5---------------8-------------------------------|
G|-0---------------5---------------8-------------------------------|
C|-0---------------5---------------8---------------------------8\\-|
-|                                                                 |
d|-----------------------------------------------------------------|
A|-----------------------------------------------------------------|
F|-----------------------------------------------------------------|
C|-0---------------5---------------8---------------------------8\\-|
G|-0---------------5---------------8---------------------------8\\-|
C|-0---------------5---------------8---------------------------8\\-|
-| (guitar 3:)                                                     |
d|-----------------------------------------------------------------|
A|-----------------------------------------------------------------|
F|-7---------------7---------------10------------------------------|
C|-x---------------x---------------x-------------------------------|
G|-5---------------5---------------8-------------------------------|
C|-----------------------------------------------------------------|


d|-----------------------------------------------------------------|
A|-----------------------------------------------------------------|
F|-----------------------------------------------------------------|
C|-3---------------3---------------7-------------------------------|
G|-3---------------3---------------7-------------------------------|
C|-3---------------3---------------7-------------------------------|
-|                                                                 |
d|-----------------------------------------------------------------|
A|-----------------------------------------------------------------|
F|-----------------10----------------------------------------------|
C|-3---------------10--------------7-------------------------------|
G|-3---------------8---------------7-------------------------------|
C|-3-------------------------------7-------------------------------|
-|                                                                 |
d|-----------------------------------------------------------------|
A|-----------------------------------------------------------------|
F|-5---------------5-------5-------9-------------------------------|
C|-x---------------x-------x-------x-------------------------------|
G|-3---------------3-------3-------7-------------------------------|
C|-----------------------------------------------------------------|


d|-----------------------------------------------------------------|
A|-----------------------------------------------------------------|
F|-----------------------------------------------------------------|
C|-0---------------5---------------8-------------------------------|
G|-0---------------5---------------8-------------------------------|
C|-0---------------5---------------8---------------------------8\\-|
-|                                                                 |
d|-----------------------------------------------------------------|
A|-----------------------------------------------------------------|
F|-----------------------------------------------------------------|
C|-0---------------5---------------8---------------------------8\\-|
G|-0---------------5---------------8---------------------------8\\-|
C|-0---------------5---------------8---------------------------8\\-|
-|                                                                 |
d|-----------------------------------------------------------------|
A|-----------------------------------------------------------------|
F|-7---------------7---------------10------------------------------|
C|-x---------------x---------------x-------------------------------|
G|-5---------------5---------------8-------------------------------|
C|-----------------------------------------------------------------|


d|-----------------------------------------------------------------|
A|-----------------------------------------------------------------|
F|-----------------------------------------------------------------|
C|-3-----------------------3-------7-------------------------------|
G|-3-----------------------3-------7-----------10~^~---------------|
C|-3-----------------------3-------7-------------------------------|
-|                                                                 |
d|-----------------------------------------------------------------|
A|-----------------------------------------------------------------|
F|-----------------------------------------------------------------|
C|-3-----------------------3-------7-------------------------------|
G|-3-----------------------3-------7------(3)//10~^~---------------|
C|-3-----------------------3-------7-------------------------------|
-|                                                                 |
d|-----------------------------------------------------------------|
A|-----------------------------------------------------------------|
F|-5-----------------------5-------6-------------------------------|
C|-x-----------------------x-------x-------------------------------|
G|-3-----------------------3-------4-------------------------------|
C|-----------------------------------------------------------------|


outro:
d|---------|
A|---------|
F|-7---7---|
C|-7---7---|
G|-5---5---|
C|-0---0---|
-|         |
d|---------|
A|---------|
F|-7---7---|
C|-7---7---|
G|-5---5---|
C|-0---0---|



ORDER:
---------------------------------
intro (guitar 1 only)
intro (both guitars) x2
keyboard intro
main riff x2
verse (keyboard only)
main riff x1
verse (keyboard only)
main riff x1
verse (keyboard only)
main riff x1
pre-chorus (keyboard only)
chorus x2
verse 2
main riff x1
verse 2 
main riff x1
verse 2
main riff x1
pre-chorus (keyboard only)
chorus x2
bridge 1
bridge 2
bridge 3 (bass and keyboard only)
chorus x4
outro x1

************************************

| /   slide up
| \   slide down
| h   hammer-on
| p   pull-off
| ~   vibrato
| +   harmonic
| x   Mute note
| ^   Bend
| pb  Pre-bend
| br  Bend release
| pbr Pre-bend release
| brb Bend release bend

************************************
Tap to rate this tab
# A B C D E F G H I J K L M N O P Q R S T U V W X Y Z