Song name
# A B C D E F G H I J K L M N O P Q R S T U V W X Y Z

Rise Against - Wait For Me tab

So this is my first tab. 
Im not quite sure that it's right but I think so.

Enjoy it ;)


INTRO +  VERSE



e|--------0-----0-----0-----|--------0-----0-----0-----|
B|-----3-----3-----3-----3--|-----3-----3-----3-----3--|
G|--------------------------|--------------------------|
D|--------------------------|--3-----------------------|
A|--------------------------|--------------------------|
E|--0-----------------------|--------------------------|


e|--------0-----0-----0-----|--------0-----3-----0h1---|
B|-----3-----3-----3-----3--|-----3-----3-----3--------|
G|--------------------------|--------------------------|
D|--------------------------|--------------------------|
A|--3-----------------------|--3-----------------------|
E|--------------------------|--------------------------|


e|--------0-----0-----0-----|--------0-----0-----0-----|
B|-----3-----3-----3-----3--|-----3-----3-----3-----0--|
G|--------------------------|--------------------------|
D|--------------------------|--------------------------|
A|--1-----------------------|--1-----------------------|
E|--------------------------|--------------------------|


e|--------0-----0-----0-----|--------0-----0-----0h1---|
B|-----3-----3-----3-----3--|-----3-----3-----3--------|
G|--------------------------|--------------------------|
D|--------------------------|--------------------------|
A|--3-----------------------|--3-----------------------|
E|--------------------------|--------------------------|



CHORUS


e|---------------|---------------|---------------|------------------------|
B|---------------|---------------|---------------|------------------------|
G|3-3-3-3-3-3-3-3|5-5-5-5-5-5-5-5|7-7-7-7-7-7-7-7|10-10-10-10-10-10-10-10-|
D|3-3-3-3-3-3-3-3|5-5-5-5-5-5-5-5|7-7-7-7-7-7-7-7|10-10-10-10-10-10-10-10-|
A|1-1-1-1-1-1-1-1|3-3-3-3-3-3-3-3|5-5-5-5-5-5-5-5|8--8--8--8--8--8--8--8--|
E|---------------|---------------|---------------|------------------------|



e|---------------|---------------|---------------|---------------|
B|---------------|---------------|---------------|---------------|
G|3-3-3-3-3-3-3-3|5-5-5-5-5-5-5-5|7-7-7-7-7-7-7-7|7-7-7-7-7-7-7-7|
D|3-3-3-3-3-3-3-3|5-5-5-5-5-5-5-5|7-7-7-7-7-7-7-7|7-7-7-7-7-7-7-7|
A|1-1-1-1-1-1-1-1|3-3-3-3-3-3-3-3|5-5-5-5-5-5-5-5|5-5-5-5-5-5-5-5|
E|---------------|---------------|---------------|---------------|



e|---------------|---------------|---------------|------------------------|
B|---------------|---------------|---------------|------------------------|
G|3-3-3-3-3-3-3-3|5-5-5-5-5-5-5-5|7-7-7-7-7-7-7-7|10-10-10-10-10-10-10-10-|
D|3-3-3-3-3-3-3-3|5-5-5-5-5-5-5-5|7-7-7-7-7-7-7-7|10-10-10-10-10-10-10-10-|
A|1-1-1-1-1-1-1-1|3-3-3-3-3-3-3-3|5-5-5-5-5-5-5-5|8--8--8--8--8--8--8--8--|
E|---------------|---------------|---------------|------------------------|



e|---------------|---------------|---------------|---------------|
B|---------------|---------------|---------------|---------------|
G|3-3-3-3-3-3-3-3|3-3-3-3-3-3-3-3|5-5-5-5-5-5-5-5|5-5-5-5-5-5-5-5|
D|3-3-3-3-3-3-3-3|3-3-3-3-3-3-3-3|5-5-5-5-5-5-5-5|5-5-5-5-5-5-5-5|
A|1-1-1-1-1-1-1-1|1-1-1-1-1-1-1-1|3-3-3-3-3-3-3-3|3-3-3-3-3-3-3-3|
E|---------------|---------------|---------------|---------------|



SOLO



e|-----------------|-----------------|-----------------|-----------------|
B|-----------------|-----------------|-----------------|--6-6-6-5-5-5----|
G|-------5-5-5-7-7-|-------5-5-5-7-7-|-------5-5-5-7-7-|--------------5-5|
D|-7-7-7-----------|-7-7-7-----------|-7-7-7-----------|-----------------|
A|-----------------|-----------------|-----------------|-----------------|
E|-----------------|-----------------|-----------------|-----------------|




e|-----------------|-----------------|-----------------|-----------------|
B|-----------------|-----------------|-----------------|-----------------|
G|-------5-5-5-7-7-|-------5-5-5-----|-----------------|-----------------|
D|-7-7-7-----------|-7-7-7-------5/3-|--3-3-3-3-3-3-3-3|-3-3-3-3-3-3-3-3-|
A|-----------------|-----------------|-----------------|-3-3-3-3-3-3-3-3-|
E|-----------------|-----------------|-----------------|-----------------|
Tap to rate this tab
 
# A B C D E F G H I J K L M N O P Q R S T U V W X Y Z