Song name
# A B C D E F G H I J K L M N O P Q R S T U V W X Y Z

Sacred Reich - Independent tab

-------------------------------------------------------------------------------
			     SONG NAME - Band Name
-------------------------------------------------------------------------------
Tabbed by: WashingtonsNext
Email:

Tuning: Down 1/2 step

e|-------------------------------------------------------------------------|
B|-------------------------------------------------------------------------|
G|-------------------------------------------------------------------------|
D|--2--5--2--5--2--5/7--5--2--5--2-----------------------------------------|
A|--2--5--2--5--2--5/7--5--2--5--2-----(Repeat then...)--------------------|
E|--0--3--0--3--0--3/5--3--0--3--0-----------------------------------------|
Use a considerable amount of distortion, and the 6th chord is slightly muted
e|-------------------------------------------------------------------------|
B|-------------------------------------------------------------------------|
G|-------------------------------------------------------------------------|
D|--(2)--------------------------------------------------------------------|
A|--(2)--(Hit this chord multiple times then back to main riff)------------|
E|--(0)-------^Listen for rhythm^------------------------------------------|
 After playin that riff again...
e|-------------------------------------------------------------------------|
B|-------------------------------------------------------------------------|
G|--(2)--------------------------------------------------------------------|
D|--(2)--(Same with this chord)--------------------------------------------|
A|--(0)--------------------------------------------------------------------|
E|-------------------------------------------------------------------------|
 After riff then...
e|-------------------------------------------------------------------------|
B|-------------------------------------------------------------------------|
G|-2----------------------------------2------------------------------------|
D|-1-0-0--2--2--2--2----2--2--2--2----1-0-0----2--2--2--2----2--2--2--2----|
A|-2-1-0--2--2--2--2----2--2--2--2----2-1-0----2--2--2--2----2--2--2--2----|
E|--------0--0--0--0----0--0--0--0-------------0--0--0--0----0--0--0--0----|
 This is basically the whole song 'cept for the solo which I improvise...
e|-12--12--12--12---12--12--12--12---12--12--12--12----12-15^17-15---------|
B|-15^-15^-15^-15^--15^-15^-15^-15^--15^-15^-15^-15^-----------------------|
G|-------------------------------------------------------------------------|
D|-------------------------------------------------------------------------|
A|-------------------------------------------------------------------------|
E|-------------------------------------------------------------------------|
This is how I do it.....
e|-------------------------------------------------------------------------|
B|--17^(19)--17-p-15--17---------------------------------------------------|
G|------------------------12--14^--12----12--(w/bar)-----------------------|
D|------------------------------------12-----------------------------------|
A|-------------------------------------------------------------------------|
E|-------------------------------------------------------------------------|

e|-------------------------------------------------------------------------|
B|-------------------------------------------------------------------------|
G|--2^^(Hold note pick about 6 x's)--0--(slight dip)--0--(let ring)--------|
D|-------------------------------------------------------------------------|
A|-------------------------------------------------------------------------|
E|-------------------------------------------------------------------------|

e|--------------------------------------12-15-14-12----12-15-14-12-----------|
B|--------------------------------------------------15-------------15--------|
G|-----12----12----12--14--12----12------------------------------------------|
D|--14----14----14------------14----14---------------------------------------|
A|---------------------------------------------------------------------------|
E|---------------------------------------------------------------------------|

e|-12-15-14-12----12-15-14-12-----12-15-14-12----12-15-14-12-----12/20^(22)|
B|-------------15-------------15--------------15--------------15-----------|
G|-------------------------------------------------------------------------|
D|-------------------------------------------------------------------------|
A|-------------------------------------------------------------------------|
E|-------------------------------------------------------------------------|

e|------------------------------12-15p-12--12------------------------------|
B|---------------------------------------15--15^--12-15p-12-----12---------|
G|----12---12---12-14-12---12--------------------------------15----14~-----|
D|-14---14---14----------14--14--------------------------------------------|
A|-------------------------------------------------------------------------|
E|-------------------------------------------------------------------------|

e|-----------------------------------------------------------------------|
B|----------------------15-12--------------------------------------------|
G|------12---12/14\12---------14-12~-------12---12---12-14-12----12------|
D|-12/14---14--------14-----------------14---14---14---------14------14--|
A|-----------------------------------------------------------------------|
E|-----------------------------------------------------------------------|
 Play "19-17-15--17------------------------------------------------------| 
sequence 4 x's excluding the last note.
e|-19-17-15---19-17-15---19-17-15---19-17-15---19-17-15---19-17-15-------|
B|----------17---------17---------17---------17----------17---------17---|
G|-----------------------------------------------------------------------|
D|-----------------------------------------------------------------------|
A|-----------------------------------------------------------------------|
E|-----------------------------------------------------------------------|

e|-20^-(22)-(22)--(Hit twice)----------------------------------------------|
B|-------------------------------------------------------------------------|
G|-------------------------------12----12----12-14-12----12----------------|
D|----------------------------14----14----14----------14----14-------------|
A|-------------------------------------------------------------------------|
E|-------------------------------------------------------------------------|
 The notes in parenthesis represent the note you are supposed to bend up to
e|-15^(17)-15^(18)-15~-----------------------------------------------------|
B|----------------------17^(19)-17p-15-------15^-15^-15^-15^(Repeat)-------|
G|--------------------------------------16---------------------------------|
D|-------------------------------------------------------------------------|
A|-------------------------------------------------------------------------|
E|-------------------------------------------------------------------------|

e|-15^(17)-15^(18)-15~-----------------------------------------------------|
B|----------------------17^(19)-17p-15-------15^-15^-15^-15^(Repeat)-------|
G|--------------------------------------16---------------------------------|
D|-------------------------------------------------------------------------|
A|-------------------------------------------------------------------------|
E|-------------------------------------------------------------------------|

And there you have it, Sacred Reich's "Independent". I will be the first to tell you 
it ain't 100% correct (solo) but it sounds close.


| /  slide up
| \  slide down
| h  hammer-on
| p  pull-off
| ~  vibrato
| +  harmonic
| x  Mute note
Tap to rate this tab
 
# A B C D E F G H I J K L M N O P Q R S T U V W X Y Z