Song name
# A B C D E F G H I J K L M N O P Q R S T U V W X Y Z

Sacred Reich - Sacred Reich tab

 SACRED REICH - SACRED REICH
 ALBUM : IGNORANCE

TRANSCRIBED BY ACHILLES AND DIMITRIS

 . = palm mute
 \ = slide down to
 ^ = abrupt stop


 INTRO
|--------------------------|
|--------------------------|
|--------------------------|
|-4----5-4-5-7----5--5-4-2-|
|-2----3-2-3-5----3--3-2-0-|
|--------------------------|


 RIFF 1
|-------------------------------------------------------|
|-------------------------------------------------------|
|-------------------------------------------------------|
|-4------4------4------5-4-2--4------4------7-5-4-5-4-2-|
|-2-2222-2-2222-2-2222-3-2-0--2-2222-2-2222-5-3-2-3-2-0-|
|-------------------------------------------------------|
    ....   ....   ....          ....   ....

|-------------------------------------------------------|
|-------------------------------------------------------|
|-------------------------------------------------------|
|-4------4------4------5-4-2--4------4------------------|
|-2-2222-2-2222-2-2222-3-2-0--2-2222-2-2222-------------|
|-------------------------------------------3-2-3-5-3-2-|
    ....   ....   ....          ....   .... . . . . . .

 RIFF 2 (CHORUS)
|------------------------------------------------------------------|
|------------------------------------------------------------------|
|------------------------------------------------------------------|
|-4-------5\4-------5\4-------5-4-5-7------------------5-4-5-------|
|-2-22222-3\2-22222-3\2-22222-3-2-3-5-5555555555555555-3-2-3-5-4-5-|
|------------------------------------------------------------3-2-3-|
    .....     .....     .....         ................

 RIFF UNDER SOLO
|-----------------------------|
|-----------------------------|
|-----------------------------|
|------4------4------4-9-7-10-|
|-2320-2-2320-2-2320-2--------|
|-----------------------------|
  ....   ....   ....

 PLAY RIFF 2

 LAST TIME PLAY THIS
|---------------------------------------------------------|
|---------------------------------------------------------|
|-----------------------------------^--------------^------|
|-4-------5\4-------5\4-------5-4-5-7--5-4-5-------4--4-4-|
|-2-22222-3\2-22222-3\2-22222-3-2-3-5--3-2-3-5-4-5-2--2-2-|
|--------------------------------------------3-2-3--------|
    .....     .....     .....         

 END

FOR QUESTIONS,COMMENTS AND CORRECTIONS (OR IF YOU KNOW THE SOLO): 
RAZORFEVER@HOTMAIL.COM
Tap to rate this tab
 
# A B C D E F G H I J K L M N O P Q R S T U V W X Y Z