Song name
# A B C D E F G H I J K L M N O P Q R S T U V W X Y Z

Sepultura - Under Siege tab

#----------------------------------PLEASE NOTE---------------------------------#
#This file is the author's own work and represents their interpretation of the #
#song. You may only use this file for private study, scholarship, or research. #
#------------------------------------------------------------------------------#

UNDER SIEGE (REGNUM IRAE)
As recorded by Sepultura
(From the 1991 Album ARISE)

Transcribed by Jeff Jacobson, Paul Pappas, and Steve Gorenberg
	

Words by Max Cavalera and Andreas Kisser Music by Sepultura

Abmaj7sus4
4 6 0 0 x x
	
Ab5
4 6 6 x x x
	
E5
0 2 x x x x
	
F#5
x 9 11 x x x

E5VII
x 7 9 x x x
	
C5
8 10 x x x x
	
Bb5
6 8 x x x x
	
B5
7 9 x x x x

F5
1 3 x x x x

Gtr I (E A D G B E) - 'Acoustic'
Gtr II (E A D G B E) - 'Rhythm 1'
Gtr III (E A D G B E) - 'Rhythm 2'
Gtr IV (E A D G B E) - 'Lead Guitar'

   Intro
    Moderately Q=108  H=H
    N.C.                                          Abmaj7sus4
   4/4
    Gtr I
    E E E E +E  E E E   E E E E +E  E E E  6x     E E E E E E E E  4x
||--------------------|--------------------||-||-------------------||
||o-------------------|-------------------o||-||o-----------------o||
||--------------------|-----0---------0----||-||----------------0--||
||------0---------0---|---0---0-(0)-----0--||-||------0------------||
||o---5---5-(5)-----5-|-4-----------4-----o||-||o---6-----5h6-----o||
||--7-----------7-----|--------------------||-||--4-----4-----4----||


    Gtr I
    E E E E E E E E   E E   E E   E E   E E
||------------------|--------------------------||
||o-----------------|-------------------------o||
||----------------0-|---------------------0----||
||------0-----------|-------0------------------||
||o---6-----5h6-----|---6---------5h6---------o||
||--4-----4-----4---|-4-------4---------4------||
|
|   Gtrs II, III
|       PM|   PM|     PM--|   PM|   PM|   PM|
|   E E E E E E E E   E S S E S S E S S E S S
||------------------|--------------------------||
||o-----------------|-------------------------o||
||------------------|--------------------------||
||------------------|--------------------------||
||o-7s6-----5-----6-|-------5-----5-----5-----o||
||--5s4-4-4-4-4-4-4-|-4-4-4-4-4-4-4-4-4-4-4-4--||


      Q=144
      Abmaj7sus4
       W                 +W                 4x
|-||-------------------|--------------------||
|-||o------------------|-------------------o||
|-||--^0---------------|-(0)----------------||
|-||--^0---------------|-(0)----------------||
|-||o-^6---------------|-(6)---------------o||
|-||--^4---------------|-(4)----------------||
|
|        PM|       PM|       PM|       PM|
|      E E E E E E E E    E  E E E E E E E  4x
|-||-------------------|--------------------||
|-||o------------------|-------------------o||
|-||-------------------|--------------------||
|-||---------8---9-----|---------8---9------||
|-||o--6-----7---7-----|--6------7---7-----o||
|-||---4-0-0-0---0-0-0-|--4--0-0-0---0-0-0--||


  N.C.
  Gtrs II, III
  PM------------------------------------------------------------------|
  E E E E E E E E   E E E E E E E E   E E E E E E E E   E E E E E E E E
|-----------------|-----------------|-----------------|-----------------||
|-----------------|-----------------|-----------------|-----------------||
|-----------------|-----------------|-----------------|-----------------||
|-----0-----0-----|-----0-----0-----|-----0-----0-----|-----0-----0-----||
|---6-----6-----6-|---6-----6-----6-|---6-----6-----6-|---6-----6-----6-||
|-4-----4-----4---|-4-----4-----4---|-4-----4-----4---|-4-----4-----4---||


    Ab5
    W          +Q.   E E E E E   W          +W
||-----------|-----------------|----------|---------||
||o----------|-----------------|----------|--------o||
||-----------|-----------------|----------|---------||
||--6--------|-(6)---6---6---6-|-6--------|-(6)-----||
||o-6--------|-(6)---6---6---6-|-6--------|-(6)----o||
||--4--------|-(4)---4---4---4-|-4--------|-(4)-----||


    E5         F#5E5VIIC5 Bb5          G#5       D#E5   G#5       D#E5
                                         PM|   PM         PM|   PM
    W           E Q.    E Q.    4x     E E E E E E Q    E E E E E E Q   4x
||-----------|------------------||-||-----------------|-----------------||
||o----------|-----------------o||-||o----------------|----------------o||
||-----------|------------------||-||-----------------|-----------------||
||-----------|-11S9-------------||-||------------8-9--|-----------8-9---||
||o-2--------|--9S7----10S8----o||-||o-6-----6---6-7--|-6-----6---6-7--o||
||--0--------|----------8S6-----||-||--4-0-0-4-0------|-4-0-0-4-0-------||


   1st Verse
    Faster Q=240
    E5                        N.C.      E5                        N.C.
      PM|   PM|   PM--|   PM--------|     PM|   PM|   PM--|   PM--------|
    E E E E E E E E   E E E E E E E E   E E E E E E E E   E E E E E E E E   4x
||------------------|-----------------|-----------------|-------------------||
||o-----------------|-----------------|-----------------|------------------o||
||------------------|-----------------|-----------------|-------------------||
||------------------|-----------------|-----------------|-------------------||
||o-2-----2-----2---|---2-----------4-|-2-----2-----2---|---2-------4---4--o||
||--0-0-0-0-0-0-0-0-|-0-0-0-0-3-0-3---|-0-0-0-0-0-0-0-0-|-0-0-0-0-3---2-----||


    E5      B5    Bb5        E5      B5    Bb5E  F5
    Gtr II
    H.       Q    W          H.       Q    Q  Q  H
    |        |    |          |        |    |  |  |
    /        /    /          /        /    /  o  /

    Gtr III
    H.       Q    W          H.       Q    Q  Q  H
||--------------|----------|-------------|-------------||
||o-------------|----------|-------------|------------o||
||--------------|----------|-------------|-------------||
||----------/9--|-8--------|---------/9--|-8s=3--3-----||
||o-2-----------|----------|-2-----------|------------o||
||--0-------/7--|-6--------|-0-------/7--|-7s=1--1-----||


  Slower Q=144
  Ab5
  Gtrs II, III
  W          +Q.   E E E E E   W          +W
|----------|-----------------|----------|--------|
|----------|-----------------|----------|--------|
|----------|-----------------|----------|--------|
|-6--------|-(6)---6---6---6-|-6--------|-(6)----|
|-6--------|-(6)---6---6---6-|-6--------|-(6)----|
|-4--------|-(4)---4---4---4-|-4--------|-(4)----|


  W          +Q.   E E E E E   H    E E E E   E E E E E E E E
|----------|-----------------|--------------|-----------------|
|----------|-----------------|--------------|-----------------|
|----------|-----------------|--------------|-----------------|
|-6--------|-(6)---6---6---6-|-6----6-6-6-6-|-6-6-6-6-6-6-6-6-|
|-6--------|-(6)---6---6---6-|-6----6-6-6-6-|-6-6-6-6-6-6-6-6-|
|-4--------|-(4)---4---4---4-|-4----4-4-4-4-|-4-4-4-4-4-4-4-4-|


    AbG5  F5
                PM--------------------|
    E E E E +E  E E E   E E E E E E E E
||--------------------|-----------------|
||o-------------------|-----------------|
||--------------------|-----------------|
||--------------------|-----------------|
||o-6s5---3-(3)-3-3-3-|-3-3-3-3-3-3-3-3-|
||--4s3-0-1-(1)-1-1-1-|-1-1-1-1-1-1-1-1-|


  AbG5  F5       E5
                         PM----------|
  E E E E +Q   E E   +E  E E E E E E E
|------------------|---------------------||
|------------------|--------------------o||
|------------------|---------------------||
|------------------|---------------------||
|-6s5---3-(3)----2-|-(2)-2-2-2-2-2-2-2--o||
|-4s3-0-1-(1)----0-|-(0)-0-0-0-0-0-0-0---||


  Eb5          Eb+5        Eb5          Ebb5
     PM----|     PM----|      PM----|     PM----|
  Q  S S S S E E S S S S   Q  S S S S E E S S S S
|------------------------|------------------------|
|------------------------|------------------------|
|------------------------|------------------------|
|-8----------8-9---------|-8----------8-7---------|
|-6----------6-6---------|-6----------6-6---------|
|----0-0-0-0-----0-0-0-0-|----0-0-0-0-----0-0-0-0-|


  Eb5          Eb+5        Eb5          Ebb5
     PM----|     PM----|      PM----|     PM|
  Q  S S S S E E S S S S   Q  S S S S E E E E
|------------------------|---------------------||
|------------------------|---------------------||
|------------------------|---------------------||
|-8----------8-9---------|-8----------8-7------||
|-6----------6-6---------|-6----------6-6------||
|----0-0-0-0-----0-0-0-0-|----0-0-0-0-----0-0--||


    E5         N.C.              Bb5
    W          E E E E E E E E   W          +W
||-----------|-----------------|----------|---------||
||o----------|-----------------|----------|--------o||
||-----------|-4s7-7-7-7s6-6---|-3--------|-(3)-----||
||--2--------|-----------------|-3--------|-(3)-----||
||o-2--------|-2s5-5-5-5s4-4-0-|-1--------|-(1)----o||
||--0--------|-----------------|----------|---------||


    N.C.
    E E Q  E Q.     E E Q  E Q.
||----------------|----------------||-|
||o---------------|---------------o||-|
||----------------|----------------||-|
||----------------|----------------||-|
||o---------------|---------------o||-|
||--0-2-1--0-1----|-0-2-1--0-1-----||-|


                   1.                 2.
        F5          N.C.F5            N.C.F5
    PM|    PM       PM|    PM         PM|    PM
    E E Q  E E Q    E E Q  E E Q      E E Q  E E E E
||----------------|----------------||-----------------||
||o---------------|---------------o||-----------------||
||----------------|----------------||-----------------||
||----------------|----------------||-----------------||
||o-----3----3-3--|-----3----3-3--o||-----3----3-3-3--||
||--0-2-1--0-1-1--|-0-2-1--0-1-1---||-0-2-1--0-1-1-1--||


    E5               B5D5      C#5     Bb5                Bbb5
       PM--------|                        PM------------|
    Q  E E E E E E   E E E E E E E E   Q  E E E E E E   E E E E E E E E
||-----------------|-----------------|----------------|-------------------||
||o----------------|-----------------|----------------|------------------o||
||-----------------|-----------------|-3--------------|---3---3-3-3-3-3---||
||-----------------|-4s7-7-7-7s6-6-0-|-3--3-3-3-3-3-3-|-3-2---2-2-2-2-2---||
||o-2--------------|-2s5-5-5-5s4-4-0-|-1--1-1-1-1-1-1-|-1-1---1-1-1-1-1--o||
||--0--0-0-0-0-0-0-|-----------------|----------------|-------------------||


  N.C.F5          N.C.F5          N.C.F5          N.C.F5
  PM|    PM       PM|    PM       PM|    PM       PM|    PM
  E E Q  E E Q    E E Q  E E Q    E E Q  E E Q    E E Q  E E Q
|---------------|---------------|---------------|---------------|
|---------------|---------------|---------------|---------------|
|---------------|---------------|---------------|---------------|
|---------------|---------------|---------------|---------------|
|-----3----3-3--|-----3----3-3--|-----3----3-3--|-----3----3-3--|
|-0-2-1--0-1-1--|-0-2-1--0-1-1--|-0-2-1--0-1-1--|-0-2-1--0-1-1--|


  N.C.
  E E Q  E Q.     E E Q  E Q.     E E Q  E Q.     E E Q  E Q.
|---------------|---------------|---------------|---------------||
|---------------|---------------|---------------|---------------||
|---------------|---------------|---------------|---------------||
|---------------|---------------|---------------|---------------||
|---------------|---------------|---------------|---------------||
|-0-2-1--0-1----|-0-2-1--0-1----|-0-2-1--0-1----|-0-2-1--0-1----||


   2nd Verse
    Faster Q=240
    E5                        N.C.      E5                        N.C.
      PM|   PM|   PM--|   PM--------|     PM|   PM|   PM--|   PM--------|
    E E E E E E E E   E E E E E E E E   E E E E E E E E   E E E E E E E E   4x
||------------------|-----------------|-----------------|-------------------||
||o-----------------|-----------------|-----------------|------------------o||
||------------------|-----------------|-----------------|-------------------||
||------------------|-----------------|-----------------|-------------------||
||o-2-----2-----2---|---2-----------4-|-2-----2-----2---|---2-------4---4--o||
||--0-0-0-0-0-0-0-0-|-0-0-0-0-3-0-3---|-0-0-0-0-0-0-0-0-|-0-0-0-0-3---2-----||


  Slower Q=168
  E
  Gtr III
  E   E   Q     H               W
  |
  o

  Gtr II                    Gtrs II, III
  PM----------------------------------------------------|
  S S S S E S S S S E S S E     S S S S E S S S S E S S E  4x
|---------------------------||-----------------------------||
|---------------------------||o---------------------------o||
|---------------------------||-----------------------------||
|---------------------------||-----------------------------||
|---------------------------||o---------------------------o||
|-0-0-0-0-0-0-0-0-0-0-0-0-0-||--0-0-0-0-0-0-0-0-0-0-0-0-0--||


    N.C.
    Gtr IV
    W                           +W
||----------------------------|-----------------------------|
||o---------------------------|-----------------------------|
||--8-------------------------|-(8)-------------------------|
||----------------------------|-----------------------------|
||o-6-------------------------|-(6)-------------------------|
||----------------------------|-----------------------------|
|
|   Gtrs II, III
|   PM-------------------------------------------------------
|   S S S S E S S S S E S S E    S  S S S E S S S S E S S E
||----------------------------|-----------------------------|
||o---------------------------|-----------------------------|
||----------------------------|-----------------------------|
||----------------------------|-----------------------------|
||o---------------------------|-----------------------------|
||--0-0-0-0-0-0-0-0-0-0-0-0-0-|--0--0-0-0-0-0-0-0-0-0-0-0-0-|


   W
|------------------------------|
|------------------------------|
|-11---------------------------|
|------------------------------|
|--9---------------------------|
|------------------------------|
|
|--------------------------|
|  S S S S E S S S S E S S E
|------------------------------|
|------------------------------|
|------------------------------|
|------------------------------|
|------------------------------|
|--0-0-0-0-0-0-0-0-0-0-0-0-0---|


  1.
   W
|-----------------------------||
|----------------------------o||
|-12--------------------------||
|-----------------------------||
|-10-------------------------o||
|-----------------------------||
|
|  PM---------------------------
|  S S S S E S S S S E S S E
|-----------------------------||
|----------------------------o||
|-----------------------------||
|-----------------------------||
|----------------------------o||
|--0-0-0-0-0-0-0-0-0-0-0-0-0--||


  2.
  W                           +W
|---------------------------|-----------------------------|
|---------------------------|-----------------------------|
|-3-------------------------|-(3)-------------------------|
|---------------------------|-----------------------------|
|-1-------------------------|-(1)-------------------------|
|---------------------------|-----------------------------|
|
|-------------------------------------------------------|
| S S S S E S S S S E S S E    S  S S S E S S S S E S S E
|---------------------------|-----------------------------|
|---------------------------|-----------------------------|
|---------------------------|-----------------------------|
|---------------------------|-----------------------------|
|---------------------------|-----------------------------|
|-0-0-0-0-0-0-0-0-0-0-0-0-0-|--0--0-0-0-0-0-0-0-0-0-0-0-0-|


  +W                            +W
|-----------------------------|-----------------------------|
|-----------------------------|-----------------------------|
|-(3)-------------------------|-(3)-------------------------|
|-----------------------------|-----------------------------|
|-(1)-------------------------|-(1)-------------------------|
|-----------------------------|-----------------------------|
|
|  PM--------------------------------------------------------
|  S  S S S E S S S S E S S E    S  S S S E S S S S E S S E
|-----------------------------|-----------------------------|
|-----------------------------|-----------------------------|
|-----------------------------|-----------------------------|
|-----------------------------|-----------------------------|
|-----------------------------|-----------------------------|
|--0--0-0-0-0-0-0-0-0-0-0-0-0-|--0--0-0-0-0-0-0-0-0-0-0-0-0-|


  +W
|-----------------------------||
|-----------------------------||
|-(3)-------------------------||
|-----------------------------||
|-(1)-------------------------||
|-----------------------------||
|
|---------------------------|
|  S  S S S E S S S S E S S E
|-----------------------------||
|-----------------------------||
|-----------------------------||
|-----------------------------||
|-----------------------------||
|--0--0-0-0-0-0-0-0-0-0-0-0-0-||


 Guitar Solo
  N.C.
   H.                   Q
|-----------------------------|
|-----------------------------|
|-10--------------------------|
|--9--------------------9-----|
|-----------------------------|
|-----------------------------|
|
|  PM--------------------------
|  S  S S S E S S S S E S S E
|-----------------------------|
|-----------------------------|
|-----------------------------|
|-----------------------------|
|-----------------------------|
|--0--0-0-0-0-0-0-0-0-0-0-0-0-|


    |--------3--------|                  |-3-|
    Q        Q        Q       Q      S S S S S   S S S S S S S S S S E S S E
|----------------------------------------------|------------------------------|
|----------------------------------------------|-6-0-0-0-0-0-7-0-0-0-0-6-0-0--|
|-[10]-----[10]-----[10]-----------------------|------------------------------|
|----------------------------[9]-------6-7-8-9-|------------------------------|
|----------------------------------------------|------------------------------|
|----------------------------------------------|------------------------------|
|
|--------------------------------------------------------------------------|
|   S  S S      S E      S S  S  S E S S E       S S S S E   S S S S E S S E
|----------------------------------------------|------------------------------|
|----------------------------------------------|------------------------------|
|----------------------------------------------|------------------------------|
|----------------------------------------------|------------------------------|
|----------------------------------------------|------------------------------|
|---0--0-0------0-0------0-0--0--0-0-0-0-0-----|-0-0-0-0-0---0-0-0-0-0-0-0-0--|


              ~~~~~~~~
                                              |---3---|
  S S S S S S E   +Q      E   E    E   E   E  S  S    S Q.         E
|-------------------------------|------------------------------------|
|-7-0-6-0-----------------------|------------------------------------|
|---------4-0-------------------|-10---------10-11---10-8------------|
|-------------3---(3)-----0-----|------9---------------------------9-|
|-------------------------------|----------8-------------------------|
|-------------------------------|------------------------------------|
|
| PM------------------------------------------------------------------
| S S S S E   S S  S  S E S S E    S S S S E  S    S    S  S E S S E
|-------------------------------|------------------------------------|
|-------------------------------|------------------------------------|
|-------------------------------|------------------------------------|
|-------------------------------|------------------------------------|
|-------------------------------|------------------------------------|
|-0-0-0-0-0---0-0--0--0-0-0-0-0-|--0-0-0-0-0--0----0----0--0-0-0-0-0-|


  E    E    T  T  T T E   +Q      +E      S S
|-----------------------------------------------|
|-----------------------------------------------|
|-8---10---10-11-10-8-----------------------8---|
|---------------------9---(9)-----(9)\---/9-----|
|-----------------------------------------------|
|-----------------------------------------------|
|
|----------------------------------------|
| S S  S S  E         S S  S  S E  S   S  E
|-----------------------------------------------|
|-----------------------------------------------|
|-----------------------------------------------|
|-----------------------------------------------|
|-----------------------------------------------|
|-0-0--0-0--0---------0-0--0--0-0--0---0--0-----|


                                                         ~~~~~~~~
   S  S  S S  S  S  S S  S  S  S S  S  S E   S S S S S S E   +Q      +S  S S S
|------------------------------------------|-----------------------------------|
|------------------------------------------|-----------------------------------|
|-10-11-10-8-10-11-10-8-10-11-10-8-11-10-8-|-8---------------------------------|
|------------------------------------------|---9-8-9-8-------------------------|
|------------------------------------------|-----------9-6---(6)-----(6)-x---x-|
|------------------------------------------|-----------------------------------|
|
|  PM----------------------------------------------------------------------|
|  S  S  S S  E     S S  S  S  E    S  S E   S S S S E   S S  S  S E  S  S E
|------------------------------------------|-----------------------------------|
|------------------------------------------|-----------------------------------|
|------------------------------------------|-----------------------------------|
|------------------------------------------|-----------------------------------|
|------------------------------------------|-----------------------------------|
|--0--0--0-0--0-----0-0--0--0--0----0--0-0-|-0-0-0-0-0---0-0--0--0-0--0--0-0---|


  |-------6-------| |------6------| |------6------| |------6------|
  S S    S S S    S S S  S S S    S S S    S S S  S S S    S S S  S
|-------------------------------------------------------------------|
|-------------------------------------------------------------------|
|-------------------------------------------------------------------|
|----------8h9h==11--------8h9h==11----------8h9h11----------8h9h11-|
|-8h9h==11----------8h9h11----------8h9h==11--------8h9h==11--------|
|-------------------------------------------------------------------|
|
| PM-----------------------------------------------------------------
| S   S    S   S    E      S   S    S   S    E      S   S    E
|-------------------------------------------------------------------|
|-------------------------------------------------------------------|
|-------------------------------------------------------------------|
|-------------------------------------------------------------------|
|-------------------------------------------------------------------|
|-0---0----0---0----0------0---0----0---0----0------0---0----0------|


  |-------6-------| |------6------| |------6------| |------6------|
  S S    S S S    S S S  S S S    S S S    S S S  S S S    S S S  S
|-------------------------------------------------------------------|
|-------------------------------------------------------------------|
|-------------------------------------------------------------------|
|----------8h9h==11--------8h9h==11----------8h9h11----------8h9h11-|
|-8h9h==11----------8h9h11----------8h9h==11--------8h9h==11--------|
|-------------------------------------------------------------------|
|
|------------------------------------------------------------|
| S   S    S   S    E      S   S    S   S    E      S   S    E
|-------------------------------------------------------------------|
|-------------------------------------------------------------------|
|-------------------------------------------------------------------|
|-------------------------------------------------------------------|
|-------------------------------------------------------------------|
|-0---0----0---0----0------0---0----0---0----0------0---0----0------|


  |-------6-------| |------6------| |------6------| |------6------|
  S S    S S S    S S S  S S S    S S S    S S S  S S S    S S S  S
|-------------------------------------------------------------------|
|-------------------------------------------------------------------|
|-------------------------------------------------------------------|
|----------8h9h==11-9p8---------------------------------------------|
|-8h9h==11--------------11-8h9h==11-9p8----------------------8h9h11-|
|-----------------------------------------11-8h9h11-8h9h==11--------|
|
| PM-----------------------------------------------------------------
| S   S    S   S    E      S   S    S   S    E      S   S    E
|-------------------------------------------------------------------|
|-------------------------------------------------------------------|
|-------------------------------------------------------------------|
|-------------------------------------------------------------------|
|-------------------------------------------------------------------|
|-0---0----0---0----0------0---0----0---0----0------0---0----0------|


                             \7
  |------5-------|
  S S    S   S   S  S S S S +H
|-------------------------------------------||
|-------------------------------------------||
|-------------------------------------------||
|-------------------------------------------||
|-9p8---------------------------------------||
|-------11p==9p==8-11p9p8s6-(6)-------------||
|
|---------------------------------------|
| S   S    S   S    E   S S  S  S E S S E
|-------------------------------------------||
|-------------------------------------------||
|-------------------------------------------||
|-------------------------------------------||
|-------------------------------------------||
|-0---0----0---0----0---0-0--0--0-0-0-0-0---||


    E5      F5E5Bb5  E5      F5E5Bb5
    W                W
    Gtrs II, III
    PM--------|      PM--------|
    E E E E E E Q    E E E E E E E E  4x
||-----------------|------------------||
||o----------------|-----------------o||
||-----------------|------------------||
||--------------3--|-------------3-3--||
||o-2-2-2-2-3-2-1--|-2-2-2-2-3-2-1-1-o||
||--0-0-0-0-1-0----|-0-0-0-0-1-0------||


  E5             F5   E5
  Gtrs II, III
  H.           E  E   W
  |            |  |   |
  /            /  /   /

  Gtr IV
  E  E E E E E E  E   E E E E E  E  E  E
|-------------------|---------------------|
|-------------------|--------------11h12--|
|----9-----9---9-10-|---9-----9h10--------|
|------8-----8------|-----8---------------|
|--------7----------|-------7-------------|
|-------------------|---------------------|


  E5             F5   E5
  H.           E  E   W
  |            |  |   |
  /            /  /   /

  E  E E E E E E  E   E E E E E  E E E
|-------------------|------------------|
|-------------------|------------------|
|----9-----9---9-10-|---9-----9h10-----|
|------8-----8------|-----8------------|
|--------7----------|-------7------7h8-|
|-------------------|------------------|


  F5E5           F5E5           F5    E5
  E Q.   +H      E Q.   +H      E E E E H
  | |     |      | |     |      | | | |
  / /     /      / /     /      / / / /

  W              W              W
|--------------|--------------|--------------*|
|--------------|--------------|--------------*|
|--------------|--------------|--------------*|
|--------------|--------------|--------------*|
|--------------|--------------|--------------*|
|--------------|--------------|--------------*|



Duration Legend
---------------
W - whole; H - half; Q - quarter; E - 8th; S - 16th; T - 32nd; X - 64th; a - acciaccatura
+ - note tied to previous; . - note dotted; .. - note double dotted
Uncapitalized letters represent notes that are staccato (1/2 duration)
Irregular groupings are notated above the duration line
Duration letters will always appear directly above the note/fret number it represents the
duration for.  Duration letters with no fret number below them represent rests.  Multi-
bar rests are notated in the form Wxn, where n is the number of bars to rest for.  Low
melody durations appear below the staff

Tablature Legend
----------------
 h   - hammer-on
 p   - pull-off
 b   - bend
 pb  - pre-bend
 r   - bend release (if no number after the r, then release immediately)
 /\  - slide into or out of (from/to "nowhere")
 s   - legato slide
 S   - shift slide
 - natural harmonic
[n]  - artificial harmonic
n(n) - tapped harmonic
 ~   - vibrato
 tr  - trill
 T   - tap
 TP  - trem. picking
 PM  - palm muting
\n/  - tremolo bar dip; n = amount to dip
 \n  - tremolo bar down
 n/  - tremolo bar up
/n\  - tremolo bar inverted dip
 =   - hold bend; also acts as connecting device for hammers/pulls
 <> - volume swell (louder/softer)
 x   - on rhythm slash represents muted slash
 o   - on rhythm slash represents single note slash

Misc Legend
-----------
 |  - bar
||  - double bar
||o - repeat start
o|| - repeat end
*|  - double bar (ending)
 :  - bar (freetime)
 $  - Segno
 &  - Coda
Tempo markers -  = BPM(8/16=s8/s16), where s8 = swing 8ths, s16 = swing 16ths

Tap to rate this tab
 
# A B C D E F G H I J K L M N O P Q R S T U V W X Y Z