Song name
# A B C D E F G H I J K L M N O P Q R S T U V W X Y Z

Shinedown - Devour chords

Devour
Shinedown
The Sound of Madness (2008)

Devour:  written by Brent Smith and Dave Bassett

GTR I - Drop C Tuning "Zach Myers" (d,A,F,C,G,C)
GTR II - Drop C Tuning "Nick Perri" (d,A,F,C,G,C)

Intro
  GTR I (Dist. with Phaser)                        
d|-------------------------------------------------|
A|-------------------------------------------------|
F|-------------------------------------------------|
C|-14-14-12-14-14-12-14-14-12-14-14-12-14-14-12----|
G|-------------------------------------------------|
C|-------------------------------------------------|
 |
 |GTR II
d|-------------------------------------------------|
A|-------------------------------------------------|
F|-------------------------------------------------|
C|-------------------------------------------------|
G|-------------------------------------------------|
C|-------------------------------------------------|

  GTR I                         
d|-------------------------------------------------|
A|-------------------------------------------------|
F|-------------------------------------------------|
C|-14-14-12-14-14-12-14-14-12-14-14-12-14-14-12----|
G|-------------------------------------------------|
C|-------------------------------------------------|
 |
 |GTR II
d|-------------------------------------------------|
A|-------------------------------------------------|
F|-------------------------------------------------|
C|-------------------------------------------------|
G|-------------------------------------------------|
C|-------------------------------------------------|

  GTR I                     
d|-------------------------------------------------|
A|-------------------------------------------------|
F|-------------------------------------------------|
C|-14-14-12-14-14-12-14-14-12-14-14-12-14-14-12----|
G|-------------------------------------------------|
C|-------------------------------------------------|
 |
 |GTR II (Distortion)
d|-7-----------------------------------------------|
A|-7-----------------------------------------------|
F|-9-----------------------------------------------|
C|-9-----------------------------------------------|
G|-7-----------------------------------------------|
C|-------------------------------------------------|

  GTR I
d|-------------------------------------------------|
A|-------------------------------------------------|
F|-------------------------------------------------|
C|-14-14-12-14-14-12-14-14-12-14-14-12-14-14-12----|
G|-------------------------------------------------|
C|-------------------------------------------------|
 |
 |GTR II 
d|-------------------------------------------------|
A|-------------------------------------------------|
F|-------------------------------------------------|
C|-------------------------------------------------|
G|-------------------------------------------------|
C|-------------------------------------------------|

  GTR I
d|-------------------------------------------------|
A|-------------------------------------------------|
F|-------------------------------------------------|
C|-14-14-12-14-14-12-14-14-12-14-14-12-14-14-12----|
G|-------------------------------------------------|
C|-------------------------------------------------|
 |
 |GTR II 
d|-------------------------------------------------|
A|-------------------------------------------------|
F|-------------------------------------------------|
C|-------------------------------------------------|
G|--2--2--2--2--2--2--2--2--2--2--2--2--2--2--2--2-|
C|--2--2--2--2--2--2--2--2--2--2--2--2--2--2--2--2-|
    .  .  .  .  .  .  .  .  .  .  .  .  .  .  .  .

  GTR I
d|-------------------------------------------------|
A|-------------------------------------------------|
F|-------------------------------------------------|
C|-14-14-12-14-14-12-14-14-12-14-14-12-14-14-12----|
G|-------------------------------------------------|
C|-------------------------------------------------|
 |
 |GTR II 
d|-------------------------------------------------|
A|-------------------------------------------------|
F|--------------------------7--7--7--7--9--9-12----|
C|--------------------------7--7--7--7--9--9-12----|
G|--2--2--2--2--2--2--2--2--5--5--5--5--7--7-10----|
C|--2--2--2--2--2--2--2--2-------------------------|
    .  .  .  .  .  .  .  .                        

  GTR I
d|-------------------------------------------------|
A|-------------------------------------------------|
F|-------------------------------------------------|
C|-14-14-12-14-14-12-14-14-12-14-14-12-14-14-12----|
G|-------------------------------------------------|
C|-------------------------------------------------|
 |
 |GTR II 
d|-------------------------------------------------|
A|-------------------------------------------------|
F|-------------------------------------------------|
C|-------------------------------------------------|
G|--2--2--2--2--2--2--2--2--2--2--2--2--2--2--2--2-|
C|--2--2--2--2--2--2--2--2--2--2--2--2--2--2--2--2-|
    .  .  .  .  .  .  .  .  .  .  .  .  .  .  .  .

  GTR I
d|-------------------------------------------------|
A|-------------------------------------------------|
F|-------------------------------------------------|
C|-14-14-12-14-14-12-14-14-12-14-14-12-14-14-12----|
G|-------------------------------------------------|
C|-------------------------------------------------|
 |
 |GTR II 
d|-------------------------------------------------|
A|-------------------------------------------------|
F|--------------------------7--7--7--7--9--9-12----|
C|--------------------------7--7--7--7--9--9-12----|
G|--2--2--2--2--2--2--2--2--5--5--5--5--7--7-10----|
C|--2--2--2--2--2--2--2--2-------------------------|
    .  .  .  .  .  .  .  .                        

  GTR I
d|-------------------------------------------------|
A|-------------------------------------------------|
F|-------------------------------------------------|
C|-14-14-12-14-14-12-14-14-12-14-14-12-14-14-12----|
G|-------------------------------------------------|
C|-------------------------------------------------|
 |
 |GTR II 
d|-------------------------------------------------|
A|-------------------------------------------------|
F|-------------------------------------------------|
C|-------------------------------------------------|
G|--2--2--2--2--2--2--2--2--2--2--2--2--2--2--2--2-|
C|--2--2--2--2--2--2--2--2--2--2--2--2--2--2--2--2-|
    .  .  .  .  .  .  .  .  .  .  .  .  .  .  .  .

  GTR I
d|-------------------------------------------------|
A|-------------------------------------------------|
F|-------------------------------------------------|
C|-14-14-12-14-14-12-14-14-------------------------|
G|--------------------------#\\\\\\\\\\\\\\\\\\\\\-|
C|--------------------------#\\\\\\\\\\\\\\\\\\\\\-|
 |
 |GTR II 
d|-------------------------------------------------|
A|-------------------------------------------------|
F|--------------------------7--7--7--7--9--9-12----|
C|--------------------------7--7--7--7--9--9-12----|
G|--2--2--2--2--2--2--2--2--5--5--5--5--7--7-10----|
C|--2--2--2--2--2--2--2--2-------------------------|
    .  .  .  .  .  .  .  .                        

Verse
  GTR I (Distortion)
d|-------------------------------------------------|
A|-------------------------------------------------|
F|--------------------------------------7--7--7--7-|
C|--------------------------------------7--7--7--7-|
G|--------------------------------------5--5--5--5-|
C|--2--2--0--2--2--0--2--2--0--2--2--0-------------|
 |
 |GTR II (Distortion)
d|-------------------------------------------------|
A|-------------------------------------------------|
F|--------------------------------------7--7--7--7-|
C|--------------------------------------7--7--7--7-|
G|--------------------------------------5--5--5--5-|
C|--2--2--0--2--2--0--2--2--0--2--2--0-------------|

  GTR I 
d|-------------------------------------------------|
A|-------------------------------------------------|
F|--------------------------------------7--7--7--7-|
C|--------------------------------------7--7--7--7-|
G|--------------------------------------5--5--5--5-|
C|--2--2--0--2--2--0--2--2--2----0-2p0-------------|
 |
 |GTR II 
d|-------------------------------------------------|
A|-------------------------------------------------|
F|--------------------------------------7--7--7--7-|
C|--------------------------------------7--7--7--7-|
G|--------------------------------------5--5--5--5-|
C|--2--2--0--2--2--0--2--2--2----0-2p0-------------|

  GTR I 
d|-------------------------------------------------|
A|-------------------------------------------------|
F|--------------------------------------7--7--7--7-|
C|--------------------------------------7--7--7--7-|
G|--------------------------------------5--5--5--5-|
C|--2--2--0--2--2--0--2--2--0--2--2--0-------------|
 |
 |GTR II 
d|-------------------------------------------------|
A|-------------------------------------------------|
F|--------------------------------------7--7--7--7-|
C|--------------------------------------7--7--7--7-|
G|--------------------------------------5--5--5--5-|
C|--2--2--0--2--2--0--2--2--0--2--2--0-------------|

  GTR I
d|-------------------------------------------------|
A|-------------------------------------------------|
F|--9--9--9-10-10-10--9--9--9-12-12-12--9--9-10-10-|
C|--x--x--x--x--x--x--x--x--x--x--x--x--x--x--x--x-|
G|--7--7--7--8--8--8--7--7--7-10-10-10--7--7--8--8-|
C|-------------------------------------------------|
 |
 |GTR II
d|-------------------------------------------------|
A|-------------------------------------------------|
F|--9--9--9-10-10-10--9--9--9-12-12-12--9--9-10-10-|
C|--9--9--9-10-10-10--9--9--9-12-12-12--9--9-10-10-|
G|--7--7--7--8--8--8--7--7--7-10-10-10--7--7--8--8-|
C|-------------------------------------------------|

  GTR I 
d|-------------------------------------------------|
A|-------------------------------------------------|
F|--------------------------------------7--7--7--7-|
C|--------------------------------------7--7--7--7-|
G|--------------------------------------5--5--5--5-|
C|--2--2--0--2--2--0--2--2--0--2--2--0-------------|
 |
 |GTR II 
d|-------------------------------------------------|
A|-------------------------------------------------|
F|--------------------------------------7--7--7--7-|
C|--------------------------------------7--7--7--7-|
G|--------------------------------------5--5--5--5-|
C|--2--2--0--2--2--0--2--2--0--2--2--0-------------|

  GTR I 
d|-------------------------------------------------|
A|-------------------------------------------------|
F|--------------------------------------7--7--7--7-|
C|--------------------------------------7--7--7--7-|
G|--------------------------------------5--5--5--5-|
C|--2--2--0--2--2--0--2--2--2----0-2p0-------------|
 |
 |GTR II 
d|-------------------------------------------------|
A|-------------------------------------------------|
F|--------------------------------------7--7--7--7-|
C|--------------------------------------7--7--7--7-|
G|--------------------------------------5--5--5--5-|
C|--2--2--0--2--2--0--2--2--2----0-2p0-------------|

  GTR I 
d|-------------------------------------------------|
A|-------------------------------------------------|
F|--------------------------------------7--7--7--7-|
C|--------------------------------------7--7--7--7-|
G|--------------------------------------5--5--5--5-|
C|--2--2--0--2--2--0--2--2--0--2--2--0-------------|
 |
 |GTR II 
d|-------------------------------------------------|
A|-------------------------------------------------|
F|--------------------------------------7--7--7--7-|
C|--------------------------------------7--7--7--7-|
G|--------------------------------------5--5--5--5-|
C|--2--2--0--2--2--0--2--2--0--2--2--0-------------|

  GTR I
d|-------------------------------------------------|
A|-------------------------------------------------|
F|--9--9--9-10-10-10--9--9--9-12-12-12--9--9-10-10-|
C|--x--x--x--x--x--x--x--x--x--x--x--x--x--x--x--x-|
G|--7--7--7--8--8--8--7--7--7-10-10-10--7--7--8--8-|
C|-------------------------------------------------|
 |
 |GTR II
d|-------------------------------------------------|
A|-------------------------------------------------|
F|--9--9--9-10-10-10--9--9--9-12-12-12--9--9-10-10-|
C|--9--9--9-10-10-10--9--9--9-12-12-12--9--9-10-10-|
G|--7--7--7--8--8--8--7--7--7-10-10-10--7--7--8--8-|
C|-------------------------------------------------|

Chorus
  GTR I
d|-------------------------------------------------|
A|-------------------------------------------------|
F|-10-10-10-10-10-10-10-10-10-10-10-10-10-10-10-10-|
C|-10-10-10-10-10-10-10-10-10-10-10-10-10-10-10-10-|
G|--8--8--8--8--8--8--8--8--8--8--8--8--8--8--8--8-|
C|-------------------------------------------------|
 |
 |GTR II
d|-------------------------------------------------|
A|-------------------------------------------------|
F|-10-10-10-10-10-10-10-10-10-10-10-10-10-10-10-10-|
C|-10-10-10-10-10-10-10-10-10-10-10-10-10-10-10-10-|
G|--8--8--8--8--8--8--8--8--8--8--8--8--8--8--8--8-|
C|-------------------------------------------------|

  GTR I
d|-------------------------------------------------|
A|-------------------------------------------------|
F|--5--5--5--5--5--5--5--5--5--5--5--5--5--5--5--5-|
C|--5--5--5--5--5--5--5--5--5--5--5--5--5--5--5--5-|
G|--3--3--3--3--3--3--3--3--3--3--3--3--3--3--3--3-|
C|-------------------------------------------------|
 |
 |GTR II
d|-------------------------------------------------|
A|-------------------------------------------------|
F|--5--5--5--5--5--5--5--5--5--5--5--5--5--5--5--5-|
C|--5--5--5--5--5--5--5--5--5--5--5--5--5--5--5--5-|
G|--3--3--3--3--3--3--3--3--3--3--3--3--3--3--3--3-|
C|-------------------------------------------------|

  GTR I
d|-------------------------------------------------|
A|-------------------------------------------------|
F|--7--7--7--7--7--7--7--7--7--7--7--7--7--7--7--7-|
C|--7--7--7--7--7--7--7--7--7--7--7--7--7--7--7--7-|
G|--5--5--5--5--5--5--5--5--5--5--5--5--5--5--5--5-|
C|-------------------------------------------------|
 |
 |GTR II
d|-------------------------------------------------|
A|-------------------------------------------------|
F|--7--7--7--7--7--7--7--7--7--7--7--7--7--7--7--7-|
C|--7--7--7--7--7--7--7--7--7--7--7--7--7--7--7--7-|
G|--5--5--5--5--5--5--5--5--5--5--5--5--5--5--5--5-|
C|-------------------------------------------------|

  GTR I
d|-------------------------------------------------|
A|-------------------------------------------------|
F|--7--7--7--9--9--9-10-10-10--9--9--9--7--7--5--5-|
C|--x--x--x--x--x--x--x--x--x--x--x--x--x--x--x--x-|
G|--5--5--5--7--7--7--8--8--8--7--7--7--5--5--3--3-|
C|-------------------------------------------------|
 |
 |GTR II
d|-------------------------------------------------|
A|-------------------------------------------------|
F|--7--7--7--9--9--9-10-10-10--9--9--9--7--7--5--5-|
C|--7--7--7--9--9--9-10-10-10--9--9--9--7--7--5--5-|
G|--5--5--5--7--7--7--8--8--8--7--7--7--5--5--3--3-|
C|-------------------------------------------------|

  GTR I
d|-------------------------------------------------|
A|-------------------------------------------------|
F|-10-10-10-10-10-10-10-10-10-10-10-10-10-10-10-10-|
C|-10-10-10-10-10-10-10-10-10-10-10-10-10-10-10-10-|
G|--8--8--8--8--8--8--8--8--8--8--8--8--8--8--8--8-|
C|-------------------------------------------------|
 |
 |GTR II
d|-------------------------------------------------|
A|-------------------------------------------------|
F|-10-10-10-10-10-10-10-10-10-10-10-10-10-10-10-10-|
C|-10-10-10-10-10-10-10-10-10-10-10-10-10-10-10-10-|
G|--8--8--8--8--8--8--8--8--8--8--8--8--8--8--8--8-|
C|-------------------------------------------------|

  GTR I
d|-------------------------------------------------|
A|-------------------------------------------------|
F|--5--5--5--5--5--5--5--5--5--5--5--5--5--5--5--5-|
C|--5--5--5--5--5--5--5--5--5--5--5--5--5--5--5--5-|
G|--3--3--3--3--3--3--3--3--3--3--3--3--3--3--3--3-|
C|-------------------------------------------------|
 |
 |GTR II
d|-------------------------------------------------|
A|-------------------------------------------------|
F|--5--5--5--5--5--5--5--5--5--5--5--5--5--5--5--5-|
C|--5--5--5--5--5--5--5--5--5--5--5--5--5--5--5--5-|
G|--3--3--3--3--3--3--3--3--3--3--3--3--3--3--3--3-|
C|-------------------------------------------------|

  GTR I
d|-------------------------------------------------|
A|-------------------------------------------------|
F|--7--7--7--7--7--7--7--7--7--7--7--7--7--7--7--7-|
C|--7--7--7--7--7--7--7--7--7--7--7--7--7--7--7--7-|
G|--5--5--5--5--5--5--5--5--5--5--5--5--5--5--5--5-|
C|-------------------------------------------------|
 |
 |GTR II
d|-------------------------------------------------|
A|-------------------------------------------------|
F|--7--7--7--7--7--7--7--7--7--7--7--7--7--7--7--7-|
C|--7--7--7--7--7--7--7--7--7--7--7--7--7--7--7--7-|
G|--5--5--5--5--5--5--5--5--5--5--5--5--5--5--5--5-|
C|-------------------------------------------------|

  GTR I
d|-------------------------------------------------|
A|-------------------------------------------------|
F|--7--7-----9--9----10-10----12-12----14----17----|
C|--x--x-----x--x-----x--x-----x--x-----x-----x----|
G|--5--5-----7--7-----8--8----10-10----12----15----|
C|-------------------------------------------------|
 |
 |GTR II
d|-------------------------------------------------|
A|-------------------------------------------------|
F|--7--7-----9--9----10-10----12-12----14----17----|
C|--x--x-----x--x-----x--x-----x--x-----x-----x----|
G|--5--5-----7--7-----8--8----10-10----12----15----|
C|-------------------------------------------------|

Fill
  GTR I (Dist. with Phaser)
d|-------------------------------------------------|
A|-------------------------------------------------|
F|-------------------------------------------------|
C|-14-14-12-14-14-12-14-14-12-14-14-12-14b15r14p12-|
G|-------------------------------------------------|
C|-------------------------------------------------|
 |
 |GTR II
d|-------------------------------------------------|
A|-------------------------------------------------|
F|-------------------------------------------------|
C|-------------------------------------------------|
G|-------------------------------------------------|
C|-------------------------------------------------|

  GTR I (Dist. with Phaser)
d|-------------------------------------------------|
A|-------------------------------------------------|
F|-------------------------------------------------|
C|-14-14-12-14-14-12-14-14-12-14-14-12-14b15r14p12-|
G|-------------------------------------------------|
C|-------------------------------------------------|
 |
 |GTR II
d|-------------------------------------------------|
A|-------------------------------------------------|
F|-------------------------------------------------|
C|-------------------------------------------------|
G|-------------------------------------------------|
C|-------------------------------------------------|

Verse
  GTR I (Distortion)
d|-------------------------------------------------|
A|-------------------------------------------------|
F|--------------------------------------7--7--7--7-|
C|--------------------------------------7--7--7--7-|
G|--------------------------------------5--5--5--5-|
C|--2--2--0--2--2--0--2--2--0--2--2--0-------------|
 |
 |GTR II (Distortion)
d|-------------------------------------------------|
A|-------------------------------------------------|
F|--------------------------------------7--7--7--7-|
C|--------------------------------------7--7--7--7-|
G|--------------------------------------5--5--5--5-|
C|--2--2--0--2--2--0--2--2--0--2--2--0-------------|

  GTR I 
d|-------------------------------------------------|
A|-------------------------------------------------|
F|--------------------------------------7--7--7--7-|
C|--------------------------------------7--7--7--7-|
G|--------------------------------------5--5--5--5-|
C|--2--2--0--2--2--0--2--2--2----0-2p0-------------|
 |
 |GTR II 
d|-------------------------------------------------|
A|-------------------------------------------------|
F|--------------------------------------7--7--7--7-|
C|--------------------------------------7--7--7--7-|
G|--------------------------------------5--5--5--5-|
C|--2--2--0--2--2--0--2--2--2----0-2p0-------------|

  GTR I 
d|-------------------------------------------------|
A|-------------------------------------------------|
F|--------------------------------------7--7--7--7-|
C|--------------------------------------7--7--7--7-|
G|--------------------------------------5--5--5--5-|
C|--2--2--0--2--2--0--2--2--0--2--2--0-------------|
 |
 |GTR II 
d|-------------------------------------------------|
A|-------------------------------------------------|
F|--------------------------------------7--7--7--7-|
C|--------------------------------------7--7--7--7-|
G|--------------------------------------5--5--5--5-|
C|--2--2--0--2--2--0--2--2--0--2--2--0-------------|

  GTR I
d|--5--------6--------5--------8--------5-----6----|
A|--8b-------9b-------8b------11b-------8b----9b---|
F|-------------------------------------------------|
C|-------------------------------------------------|
G|-------------------------------------------------|
C|-------------------------------------------------|
 |
 |GTR II
d|-------------------------------------------------|
A|-------------------------------------------------|
F|--9--9--9-10-10-10--9--9--9-12-12-12--9--9-10-10-|
C|--9--9--9-10-10-10--9--9--9-12-12-12--9--9-10-10-|
G|--7--7--7--8--8--8--7--7--7-10-10-10--7--7--8--8-|
C|-------------------------------------------------|

  GTR I 
d|-------------------------------------------------|
A|-------------------------------------------------|
F|--------------------------------------7--7--7--7-|
C|--------------------------------------7--7--7--7-|
G|--------------------------------------5--5--5--5-|
C|--2--2--0--2--2--0--2--2--0--2--2--0-------------|
 |
 |GTR II 
d|-------------------------------------------------|
A|-------------------------------------------------|
F|--------------------------------------7--7--7--7-|
C|--------------------------------------7--7--7--7-|
G|--------------------------------------5--5--5--5-|
C|--2--2--0--2--2--0--2--2--0--2--2--0-------------|

  GTR I 
d|-------------------------------------------------|
A|-------------------------------------------------|
F|--------------------------------------7--7--7--7-|
C|--------------------------------------7--7--7--7-|
G|--------------------------------------5--5--5--5-|
C|--2--2--0--2--2--0--2--2--2----0-2p0-------------|
 |
 |GTR II 
d|-------------------------------------------------|
A|-------------------------------------------------|
F|--------------------------------------7--7--7--7-|
C|--------------------------------------7--7--7--7-|
G|--------------------------------------5--5--5--5-|
C|--2--2--0--2--2--0--2--2--2----0-2p0-------------|

  GTR I 
d|-------------------------------------------------|
A|-------------------------------------------------|
F|--------------------------------------7--7--7--7-|
C|--------------------------------------7--7--7--7-|
G|--------------------------------------5--5--5--5-|
C|--2--2--0--2--2--0--2--2--0--2--2--0-------------|
 |
 |GTR II 
d|-------------------------------------------------|
A|-------------------------------------------------|
F|--------------------------------------7--7--7--7-|
C|--------------------------------------7--7--7--7-|
G|--------------------------------------5--5--5--5-|
C|--2--2--0--2--2--0--2--2--0--2--2--0-------------|

  GTR I
d|--5--------6--------5--------8--------5-----6----|
A|--8b-------9b-------8b------11b-------8b----9b---|
F|-------------------------------------------------|
C|-------------------------------------------------|
G|-------------------------------------------------|
C|-------------------------------------------------|
 |
 |GTR II
d|-------------------------------------------------|
A|-------------------------------------------------|
F|--9--9--9-10-10-10--9--9--9-12-12-12--9--9-10-10-|
C|--9--9--9-10-10-10--9--9--9-12-12-12--9--9-10-10-|
G|--7--7--7--8--8--8--7--7--7-10-10-10--7--7--8--8-|
C|-------------------------------------------------|

Chorus 2
  GTR I
d|-13-13-12-12-10-10--8--8-10-10--8--8-10-10-12-12-|
A|--x--x--x--x--x--x--x--x--x--x--x--x--x--x--x--x-|
F|-10-10--9--9--7--7--5--5--7--7--5--5--7--7--9--9-|
C|-------------------------------------------------|
G|-------------------------------------------------|
C|-------------------------------------------------|
 |
 |GTR II
d|-------------------------------------------------|
A|-------------------------------------------------|
F|-10-10-10-10-10-10-10-10-10-10-10-10-10-10-10-10-|
C|-10-10-10-10-10-10-10-10-10-10-10-10-10-10-10-10-|
G|--8--8--8--8--8--8--8--8--8--8--8--8--8--8--8--8-|
C|-------------------------------------------------|

  GTR I
d|-13-13-12-12-10-10--8--8-10-10--8--8-10-10-12-12-|
A|--x--x--x--x--x--x--x--x--x--x--x--x--x--x--x--x-|
F|-10-10--9--9--7--7--5--5--7--7--5--5--7--7--9--9-|
C|-------------------------------------------------|
G|-------------------------------------------------|
C|-------------------------------------------------|
 |
 |GTR II
d|-------------------------------------------------|
A|-------------------------------------------------|
F|--5--5--5--5--5--5--5--5--5--5--5--5--5--5--5--5-|
C|--5--5--5--5--5--5--5--5--5--5--5--5--5--5--5--5-|
G|--3--3--3--3--3--3--3--3--3--3--3--3--3--3--3--3-|
C|-------------------------------------------------|

  GTR I
d|-13-13-12-12-10-10--8--8-10-10--8--8-10-10-12-12-|
A|--x--x--x--x--x--x--x--x--x--x--x--x--x--x--x--x-|
F|-10-10--9--9--7--7--5--5--7--7--5--5--7--7--9--9-|
C|-------------------------------------------------|
G|-------------------------------------------------|
C|-------------------------------------------------|
 |
 |GTR II
d|-------------------------------------------------|
A|-------------------------------------------------|
F|--7--7--7--7--7--7--7--7--7--7--7--7--7--7--7--7-|
C|--7--7--7--7--7--7--7--7--7--7--7--7--7--7--7--7-|
G|--5--5--5--5--5--5--5--5--5--5--5--5--5--5--5--5-|
C|-------------------------------------------------|

  GTR I
d|-10-10-10-12-12-12-13-13-13-12-12-12-10-10--8--8-|
A|--x--x--x--x--x--x--x--x--x--x--x--x--x--x--x--x-|
F|--7--7--7--9--9--9-10-10-10--9--9--9--7--7--5--5-|
C|-------------------------------------------------|
G|-------------------------------------------------|
C|-------------------------------------------------|
 |
 |GTR II
d|-------------------------------------------------|
A|-------------------------------------------------|
F|--7--7--7--9--9--9-10-10-10--9--9--9--7--7--5--5-|
C|--7--7--7--9--9--9-10-10-10--9--9--9--7--7--5--5-|
G|--5--5--5--7--7--7--8--8--8--7--7--7--5--5--3--3-|
C|-------------------------------------------------|

  GTR I
d|-13-13-12-12-10-10--8--8-10-10--8--8-10-10-12-12-|
A|--x--x--x--x--x--x--x--x--x--x--x--x--x--x--x--x-|
F|-10-10--9--9--7--7--5--5--7--7--5--5--7--7--9--9-|
C|-------------------------------------------------|
G|-------------------------------------------------|
C|-------------------------------------------------|
 |
 |GTR II
d|-------------------------------------------------|
A|-------------------------------------------------|
F|-10-10-10-10-10-10-10-10-10-10-10-10-10-10-10-10-|
C|-10-10-10-10-10-10-10-10-10-10-10-10-10-10-10-10-|
G|--8--8--8--8--8--8--8--8--8--8--8--8--8--8--8--8-|
C|-------------------------------------------------|

  GTR I
d|-13-13-12-12-10-10--8--8-10-10--8--8-10-10-12-12-|
A|--x--x--x--x--x--x--x--x--x--x--x--x--x--x--x--x-|
F|-10-10--9--9--7--7--5--5--7--7--5--5--7--7--9--9-|
C|-------------------------------------------------|
G|-------------------------------------------------|
C|-------------------------------------------------|
 |
 |GTR II
d|-------------------------------------------------|
A|-------------------------------------------------|
F|--5--5--5--5--5--5--5--5--5--5--5--5--5--5--5--5-|
C|--5--5--5--5--5--5--5--5--5--5--5--5--5--5--5--5-|
G|--3--3--3--3--3--3--3--3--3--3--3--3--3--3--3--3-|
C|-------------------------------------------------|

  GTR I
d|-13-13-12-12-10-10--8--8-10-10--8--8-10-10-12-12-|
A|--x--x--x--x--x--x--x--x--x--x--x--x--x--x--x--x-|
F|-10-10--9--9--7--7--5--5--7--7--5--5--7--7--9--9-|
C|-------------------------------------------------|
G|-------------------------------------------------|
C|-------------------------------------------------|
 |
 |GTR II
d|-------------------------------------------------|
A|-------------------------------------------------|
F|--7--7--7--7--7--7--7--7--7--7--7--7--7--7--7--7-|
C|--7--7--7--7--7--7--7--7--7--7--7--7--7--7--7--7-|
G|--5--5--5--5--5--5--5--5--5--5--5--5--5--5--5--5-|
C|-------------------------------------------------|

  GTR I
d|-10-10----12-12----13-13----15-15----17----19----|
A|--x--x-----x--x-----x--x-----x--x-----x-----x----|
F|--7--7-----9--9----10-10----12-12----14----16----|
C|-------------------------------------------------|
G|-------------------------------------------------|
C|-------------------------------------------------|
 |
 |GTR II
d|-------------------------------------------------|
A|-------------------------------------------------|
F|--7--7-----9--9----10-10----12-12----14----17----|
C|--7--7-----9--9----10-10----12-12----14----17----|
G|--5--5-----7--7-----8--8----10-10----12----15----|
C|-------------------------------------------------|

  GTR I
d|-10-10----12-12----13-13----15-15----17----19----|
A|--x--x-----x--x-----x--x-----x--x-----x-----x----|
F|--7--7-----9--9----10-10----12-12----14----16----|
C|-------------------------------------------------|
G|-------------------------------------------------|
C|-------------------------------------------------|
 |
 |GTR II
d|-------------------------------------------------|
A|-------------------------------------------------|
F|--7--7-----9--9----10-10----12-12----14----17----|
C|--7--7-----9--9----10-10----12-12----14----17----|
G|--5--5-----7--7-----8--8----10-10----12----15----|
C|-------------------------------------------------|

  GTR I
d|-10-10----12-12----13-13----15-15----17----19----|
A|--x--x-----x--x-----x--x-----x--x-----x-----x----|
F|--7--7-----9--9----10-10----12-12----14----16----|
C|-------------------------------------------------|
G|-------------------------------------------------|
C|-------------------------------------------------|
 |
 |GTR II
d|-------------------------------------------------|
A|-------------------------------------------------|
F|--7--7-----9--9----10-10----12-12----14----17----|
C|--7--7-----9--9----10-10----12-12----14----17----|
G|--5--5-----7--7-----8--8----10-10----12----15----|
C|-------------------------------------------------|

  GTR I
d|-10-10----12-12----13-13----15-15----17----19----|
A|--x--x-----x--x-----x--x-----x--x-----x-----x----|
F|--7--7-----9--9----10-10----12-12----14----16----|
C|-------------------------------------------------|
G|-------------------------------------------------|
C|-------------------------------------------------|
 |
 |GTR II
d|-------------------------------------------------|
A|-------------------------------------------------|
F|--7--7-----9--9----10-10----12-12----14----17----|
C|--7--7-----9--9----10-10----12-12----14----17----|
G|--5--5-----7--7-----8--8----10-10----12----15----|
C|-------------------------------------------------|

Bridge
  GTR I
d|-------------------------------------------------|
A|-------------------------------------------------|
F|-------------------------------------------------|
C|-------------------------------------------------|
G|--3--0--0--0--0--0--0--0--3--0--0--0--0--0--0--0-|
C|--3--0--0--0--0--0--0--0--3--0--0--0--0--0--0--0-|
 |  .  .  .  .  .  .  .  .  .  .  .  .  .  .  .  . 
 |GTR II
d|-------------------------------------------------|
A|-------------------------------------------------|
F|-------------------------------------------------|
C|-------------------------------------------------|
G|--3--0--0--0--0--0--0--0--3--0--0--0--0--0--0--0-|
C|--3--0--0--0--0--0--0--0--3--0--0--0--0--0--0--0-|
    .  .  .  .  .  .  .  .  .  .  .  .  .  .  .  . 

  GTR I
d|-------------------------------------------------|
A|-------------------------------------------------|
F|--------------------------4/-5--5--5--7--7-10----|
C|--------------------------4/-5--5--5--7--7-10----|
G|--3--0--0--0--0--0--0--0--2/-3--3--3--5--5--8----|
C|--3--0--0--0--0--0--0--0-------------------------|
 |  .  .  .  .  .  .  .  .
 |GTR II
d|-------------------------------------------------|
A|-------------------------------------------------|
F|--------------------------4/-5--5--5--7--7-10----|
C|--------------------------4/-5--5--5--7--7-10----|
G|--3--0--0--0--0--0--0--0--2/-3--3--3--5--5--8----|
C|--3--0--0--0--0--0--0--0-------------------------|
    .  .  .  .  .  .  .  .

  GTR I
d|-------------------------------------------------|
A|-------------------------------------------------|
F|-------------------------------------------------|
C|-------------------------------------------------|
G|--3--0--0--0--0--0--0--0--3--0--0--0--0--0--0--0-|
C|--3--0--0--0--0--0--0--0--3--0--0--0--0--0--0--0-|
 |  .  .  .  .  .  .  .  .  .  .  .  .  .  .  .  . 
 |GTR II
d|-------------------------------------------------|
A|-------------------------------------------------|
F|-------------------------------------------------|
C|-------------------------------------------------|
G|--3--0--0--0--0--0--0--0--3--0--0--0--0--0--0--0-|
C|--3--0--0--0--0--0--0--0--3--0--0--0--0--0--0--0-|
    .  .  .  .  .  .  .  .  .  .  .  .  .  .  .  . 

  GTR I
d|-------------------------------------------------|
A|-------------------------------------------------|
F|--------------------------4/-5--5--5--7--7-10----|
C|--------------------------4/-5--5--5--7--7-10----|
G|--3--0--0--0--0--0--0--0--2/-3--3--3--5--5--8----|
C|--3--0--0--0--0--0--0--0-------------------------|
 |  .  .  .  .  .  .  .  .
 |GTR II
d|-------------------------------------------------|
A|-------------------------------------------------|
F|--------------------------4/-5--5--5--7--7-10----|
C|--------------------------4/-5--5--5--7--7-10----|
G|--3--0--0--0--0--0--0--0--2/-3--3--3--5--5--8----|
C|--3--0--0--0--0--0--0--0-------------------------|
    .  .  .  .  .  .  .  .

  GTR I
d|-------------------------------------------------|
A|-------------------------------------------------|
F|-------------------------------------------------|
C|-------------------------------------------------|
G|--3--0--0--0--0--0--0--0--3--0--0--0--0--0--0--0-|
C|--3--0--0--0--0--0--0--0--3--0--0--0--0--0--0--0-|
 |  .  .  .  .  .  .  .  .  .  .  .  .  .  .  .  . 
 |GTR II
d|-------------------------------------------------|
A|-------------------------------------------------|
F|-------------------------------------------------|
C|-------------------------------------------------|
G|--3--0--0--0--0--0--0--0--3--0--0--0--0--0--0--0-|
C|--3--0--0--0--0--0--0--0--3--0--0--0--0--0--0--0-|
    .  .  .  .  .  .  .  .  .  .  .  .  .  .  .  . 

  GTR I
d|-------------------------------------------------|
A|-------------------------------------------------|
F|--------------------------4/-5--5--5--7--7-10----|
C|--------------------------4/-5--5--5--7--7-10----|
G|--3--0--0--0--0--0--0--0--2/-3--3--3--5--5--8----|
C|--3--0--0--0--0--0--0--0-------------------------|
 |  .  .  .  .  .  .  .  .
 |GTR II
d|-------------------------------------------------|
A|-------------------------------------------------|
F|--------------------------4/-5--5--5--7--7-10----|
C|--------------------------4/-5--5--5--7--7-10----|
G|--3--0--0--0--0--0--0--0--2/-3--3--3--5--5--8----|
C|--3--0--0--0--0--0--0--0-------------------------|
    .  .  .  .  .  .  .  .

  GTR I
d|-------------------------------------------------|
A|-------------------------------------------------|
F|-------------------------------------------------|
C|-------------------------------------------------|
G|--3--0--0--0--0--0--0--0--3--0--0--0--0--0--0--0-|
C|--3--0--0--0--0--0--0--0--3--0--0--0--0--0--0--0-|
 |  .  .  .  .  .  .  .  .  .  .  .  .  .  .  .  . 
 |GTR II
d|-------------------------------------------------|
A|-------------------------------------------------|
F|-------------------------------------------------|
C|-------------------------------------------------|
G|--3--0--0--0--0--0--0--0--3--0--0--0--0--0--0--0-|
C|--3--0--0--0--0--0--0--0--3--0--0--0--0--0--0--0-|
    .  .  .  .  .  .  .  .  .  .  .  .  .  .  .  . 

  GTR I
d|-------------------------------------------------|
A|-------------------------------------------------|
F|--------------------------4/-5--5--5--7--7-10----|
C|--------------------------4/-5--5--5--7--7-10----|
G|--3--0--0--0--0--0--0--0--2/-3--3--3--5--5--8----|
C|--3--0--0--0--0--0--0--0-------------------------|
 |  .  .  .  .  .  .  .  .
 |GTR II
d|-------------------------------------------------|
A|-------------------------------------------------|
F|--------------------------4/-5--5--5--7--7-10----|
C|--------------------------4/-5--5--5--7--7-10----|
G|--3--0--0--0--0--0--0--0--2/-3--3--3--5--5--8----|
C|--3--0--0--0--0--0--0--0-------------------------|
    .  .  .  .  .  .  .  .

  GTR I
d|-------------------------------------------------|
A|-------------------------------------------------|
F|-------------------------------------------------|
C|-------------------------------------------------|
G|--3--0--0--0--0--0--0--0--3--0--0--0--0--0--0--0-|
C|--3--0--0--0--0--0--0--0--3--0--0--0--0--0--0--0-|
 |  .  .  .  .  .  .  .  .  .  .  .  .  .  .  .  . 
 |GTR II
d|-------------------------------------------------|
A|-------------------------------------------------|
F|-------------------------------------------------|
C|-------------------------------------------------|
G|--3--0--0--0--0--0--0--0--3--0--0--0--0--0--0--0-|
C|--3--0--0--0--0--0--0--0--3--0--0--0--0--0--0--0-|
    .  .  .  .  .  .  .  .  .  .  .  .  .  .  .  . 

  GTR I
d|-------------------------------------------------|
A|-------------------------------------------------|
F|-------------------------------------------------|
C|-------------------------------------------------|
G|--3----------------------------------------------|
C|--3----------------------------------------------|
 |  .                     
 |GTR II
d|-------------------------------------------------|
A|-------------------------------------------------|
F|-------------------------------------------------|
C|-------------------------------------------------|
G|--3----------------------------------------------|
C|--3----------------------------------------------|
    .                      

Chorus 2
  GTR I
d|-13-13-12-12-10-10--8--8-10-10--8--8-10-10-12-12-|
A|--x--x--x--x--x--x--x--x--x--x--x--x--x--x--x--x-|
F|-10-10--9--9--7--7--5--5--7--7--5--5--7--7--9--9-|
C|-------------------------------------------------|
G|-------------------------------------------------|
C|-------------------------------------------------|
 |
 |GTR II
d|-------------------------------------------------|
A|-------------------------------------------------|
F|-10-10-10-10-10-10-10-10-10-10-10-10-10-10-10-10-|
C|-10-10-10-10-10-10-10-10-10-10-10-10-10-10-10-10-|
G|--8--8--8--8--8--8--8--8--8--8--8--8--8--8--8--8-|
C|-------------------------------------------------|

  GTR I
d|-13-13-12-12-10-10--8--8-10-10--8--8-10-10-12-12-|
A|--x--x--x--x--x--x--x--x--x--x--x--x--x--x--x--x-|
F|-10-10--9--9--7--7--5--5--7--7--5--5--7--7--9--9-|
C|-------------------------------------------------|
G|-------------------------------------------------|
C|-------------------------------------------------|
 |
 |GTR II
d|-------------------------------------------------|
A|-------------------------------------------------|
F|--5--5--5--5--5--5--5--5--5--5--5--5--5--5--5--5-|
C|--5--5--5--5--5--5--5--5--5--5--5--5--5--5--5--5-|
G|--3--3--3--3--3--3--3--3--3--3--3--3--3--3--3--3-|
C|-------------------------------------------------|

  GTR I
d|-13-13-12-12-10-10--8--8-10-10--8--8-10-10-12-12-|
A|--x--x--x--x--x--x--x--x--x--x--x--x--x--x--x--x-|
F|-10-10--9--9--7--7--5--5--7--7--5--5--7--7--9--9-|
C|-------------------------------------------------|
G|-------------------------------------------------|
C|-------------------------------------------------|
 |
 |GTR II
d|-------------------------------------------------|
A|-------------------------------------------------|
F|--7--7--7--7--7--7--7--7--7--7--7--7--7--7--7--7-|
C|--7--7--7--7--7--7--7--7--7--7--7--7--7--7--7--7-|
G|--5--5--5--5--5--5--5--5--5--5--5--5--5--5--5--5-|
C|-------------------------------------------------|

  GTR I
d|-10-10-10-12-12-12-13-13-13-12-12-12-10-10--8--8-|
A|--x--x--x--x--x--x--x--x--x--x--x--x--x--x--x--x-|
F|--7--7--7--9--9--9-10-10-10--9--9--9--7--7--5--5-|
C|-------------------------------------------------|
G|-------------------------------------------------|
C|-------------------------------------------------|
 |
 |GTR II
d|-------------------------------------------------|
A|-------------------------------------------------|
F|--7--7--7--9--9--9-10-10-10--9--9--9--7--7--5--5-|
C|--7--7--7--9--9--9-10-10-10--9--9--9--7--7--5--5-|
G|--5--5--5--7--7--7--8--8--8--7--7--7--5--5--3--3-|
C|-------------------------------------------------|

  GTR I
d|-13-13-12-12-10-10--8--8-10-10--8--8-10-10-12-12-|
A|--x--x--x--x--x--x--x--x--x--x--x--x--x--x--x--x-|
F|-10-10--9--9--7--7--5--5--7--7--5--5--7--7--9--9-|
C|-------------------------------------------------|
G|-------------------------------------------------|
C|-------------------------------------------------|
 |
 |GTR II
d|-------------------------------------------------|
A|-------------------------------------------------|
F|-10-10-10-10-10-10-10-10-10-10-10-10-10-10-10-10-|
C|-10-10-10-10-10-10-10-10-10-10-10-10-10-10-10-10-|
G|--8--8--8--8--8--8--8--8--8--8--8--8--8--8--8--8-|
C|-------------------------------------------------|

  GTR I
d|-13-13-12-12-10-10--8--8-10-10--8--8-10-10-12-12-|
A|--x--x--x--x--x--x--x--x--x--x--x--x--x--x--x--x-|
F|-10-10--9--9--7--7--5--5--7--7--5--5--7--7--9--9-|
C|-------------------------------------------------|
G|-------------------------------------------------|
C|-------------------------------------------------|
 |
 |GTR II
d|-------------------------------------------------|
A|-------------------------------------------------|
F|--5--5--5--5--5--5--5--5--5--5--5--5--5--5--5--5-|
C|--5--5--5--5--5--5--5--5--5--5--5--5--5--5--5--5-|
G|--3--3--3--3--3--3--3--3--3--3--3--3--3--3--3--3-|
C|-------------------------------------------------|

  GTR I
d|-13-13-12-12-10-10--8--8-10-10--8--8-10-10-12-12-|
A|--x--x--x--x--x--x--x--x--x--x--x--x--x--x--x--x-|
F|-10-10--9--9--7--7--5--5--7--7--5--5--7--7--9--9-|
C|-------------------------------------------------|
G|-------------------------------------------------|
C|-------------------------------------------------|
 |
 |GTR II
d|-------------------------------------------------|
A|-------------------------------------------------|
F|--7--7--7--7--7--7--7--7--7--7--7--7--7--7--7--7-|
C|--7--7--7--7--7--7--7--7--7--7--7--7--7--7--7--7-|
G|--5--5--5--5--5--5--5--5--5--5--5--5--5--5--5--5-|
C|-------------------------------------------------|

  GTR I
d|-10-10----12-12----13-13----15-15----17----19----|
A|--x--x-----x--x-----x--x-----x--x-----x-----x----|
F|--7--7-----9--9----10-10----12-12----14----16----|
C|-------------------------------------------------|
G|-------------------------------------------------|
C|-------------------------------------------------|
 |
 |GTR II
d|-------------------------------------------------|
A|-------------------------------------------------|
F|--7--7-----9--9----10-10----12-12----14----17----|
C|--7--7-----9--9----10-10----12-12----14----17----|
G|--5--5-----7--7-----8--8----10-10----12----15----|
C|-------------------------------------------------|

Chorus 2
  GTR I
d|-13-13-12-12-10-10--8--8-10-10--8--8-10-10-12-12-|
A|--x--x--x--x--x--x--x--x--x--x--x--x--x--x--x--x-|
F|-10-10--9--9--7--7--5--5--7--7--5--5--7--7--9--9-|
C|-------------------------------------------------|
G|-------------------------------------------------|
C|-------------------------------------------------|
 |
 |GTR II
d|-------------------------------------------------|
A|-------------------------------------------------|
F|-10-10-10-10-10-10-10-10-10-10-10-10-10-10-10-10-|
C|-10-10-10-10-10-10-10-10-10-10-10-10-10-10-10-10-|
G|--8--8--8--8--8--8--8--8--8--8--8--8--8--8--8--8-|
C|-------------------------------------------------|

  GTR I
d|-13-13-12-12-10-10--8--8-10-10--8--8-10-10-12-12-|
A|--x--x--x--x--x--x--x--x--x--x--x--x--x--x--x--x-|
F|-10-10--9--9--7--7--5--5--7--7--5--5--7--7--9--9-|
C|-------------------------------------------------|
G|-------------------------------------------------|
C|-------------------------------------------------|
 |
 |GTR II
d|-------------------------------------------------|
A|-------------------------------------------------|
F|--5--5--5--5--5--5--5--5--5--5--5--5--5--5--5--5-|
C|--5--5--5--5--5--5--5--5--5--5--5--5--5--5--5--5-|
G|--3--3--3--3--3--3--3--3--3--3--3--3--3--3--3--3-|
C|-------------------------------------------------|

  GTR I
d|-13-13-12-12-10-10--8--8-10-10--8--8-10-10-12-12-|
A|--x--x--x--x--x--x--x--x--x--x--x--x--x--x--x--x-|
F|-10-10--9--9--7--7--5--5--7--7--5--5--7--7--9--9-|
C|-------------------------------------------------|
G|-------------------------------------------------|
C|-------------------------------------------------|
 |
 |GTR II
d|-------------------------------------------------|
A|-------------------------------------------------|
F|--7--7--7--7--7--7--7--7--7--7--7--7--7--7--7--7-|
C|--7--7--7--7--7--7--7--7--7--7--7--7--7--7--7--7-|
G|--5--5--5--5--5--5--5--5--5--5--5--5--5--5--5--5-|
C|-------------------------------------------------|

  GTR I
d|-10-10-10-12-12-12-13-13-13-12-12-12-10-10--8--8-|
A|--x--x--x--x--x--x--x--x--x--x--x--x--x--x--x--x-|
F|--7--7--7--9--9--9-10-10-10--9--9--9--7--7--5--5-|
C|-------------------------------------------------|
G|-------------------------------------------------|
C|-------------------------------------------------|
 |
 |GTR II
d|-------------------------------------------------|
A|-------------------------------------------------|
F|--7--7--7--9--9--9-10-10-10--9--9--9--7--7--5--5-|
C|--7--7--7--9--9--9-10-10-10--9--9--9--7--7--5--5-|
G|--5--5--5--7--7--7--8--8--8--7--7--7--5--5--3--3-|
C|-------------------------------------------------|

  GTR I
d|-13-13-12-12-10-10--8--8-10-10--8--8-10-10-12-12-|
A|--x--x--x--x--x--x--x--x--x--x--x--x--x--x--x--x-|
F|-10-10--9--9--7--7--5--5--7--7--5--5--7--7--9--9-|
C|-------------------------------------------------|
G|-------------------------------------------------|
C|-------------------------------------------------|
 |
 |GTR II
d|-------------------------------------------------|
A|-------------------------------------------------|
F|-10-10-10-10-10-10-10-10-10-10-10-10-10-10-10-10-|
C|-10-10-10-10-10-10-10-10-10-10-10-10-10-10-10-10-|
G|--8--8--8--8--8--8--8--8--8--8--8--8--8--8--8--8-|
C|-------------------------------------------------|

  GTR I
d|-13-13-12-12-10-10--8--8-10-10--8--8-10-10-12-12-|
A|--x--x--x--x--x--x--x--x--x--x--x--x--x--x--x--x-|
F|-10-10--9--9--7--7--5--5--7--7--5--5--7--7--9--9-|
C|-------------------------------------------------|
G|-------------------------------------------------|
C|-------------------------------------------------|
 |
 |GTR II
d|-------------------------------------------------|
A|-------------------------------------------------|
F|--5--5--5--5--5--5--5--5--5--5--5--5--5--5--5--5-|
C|--5--5--5--5--5--5--5--5--5--5--5--5--5--5--5--5-|
G|--3--3--3--3--3--3--3--3--3--3--3--3--3--3--3--3-|
C|-------------------------------------------------|

  GTR I
d|-13-13-12-12-10-10--8--8-10-10--8--8-10-10-12-12-|
A|--x--x--x--x--x--x--x--x--x--x--x--x--x--x--x--x-|
F|-10-10--9--9--7--7--5--5--7--7--5--5--7--7--9--9-|
C|-------------------------------------------------|
G|-------------------------------------------------|
C|-------------------------------------------------|
 |
 |GTR II
d|-------------------------------------------------|
A|-------------------------------------------------|
F|--7--7--7--7--7--7--7--7--7--7--7--7--7--7--7--7-|
C|--7--7--7--7--7--7--7--7--7--7--7--7--7--7--7--7-|
G|--5--5--5--5--5--5--5--5--5--5--5--5--5--5--5--5-|
C|-------------------------------------------------|

  GTR I
d|-10-10----12-12----13-13----15-15----17----19----|
A|--x--x-----x--x-----x--x-----x--x-----x-----x----|
F|--7--7-----9--9----10-10----12-12----14----16----|
C|-------------------------------------------------|
G|-------------------------------------------------|
C|-------------------------------------------------|
 |
 |GTR II
d|-------------------------------------------------|
A|-------------------------------------------------|
F|--7--7-----9--9----10-10----12-12----14----17----|
C|--7--7-----9--9----10-10----12-12----14----17----|
G|--5--5-----7--7-----8--8----10-10----12----15----|
C|-------------------------------------------------|

  GTR I
d|-10-10----12-12----13-13----15-15----17----19----|
A|--x--x-----x--x-----x--x-----x--x-----x-----x----|
F|--7--7-----9--9----10-10----12-12----14----16----|
C|-------------------------------------------------|
G|-------------------------------------------------|
C|-------------------------------------------------|
 |
 |GTR II
d|-------------------------------------------------|
A|-------------------------------------------------|
F|--7--7-----9--9----10-10----12-12----14----17----|
C|--7--7-----9--9----10-10----12-12----14----17----|
G|--5--5-----7--7-----8--8----10-10----12----15----|
C|-------------------------------------------------|

  GTR I
d|-10-10----12-12----13-13----15-15----17----19----|
A|--x--x-----x--x-----x--x-----x--x-----x-----x----|
F|--7--7-----9--9----10-10----12-12----14----16----|
C|-------------------------------------------------|
G|-------------------------------------------------|
C|-------------------------------------------------|
 |
 |GTR II
d|-------------------------------------------------|
A|-------------------------------------------------|
F|--7--7-----9--9----10-10----12-12----14----17----|
C|--7--7-----9--9----10-10----12-12----14----17----|
G|--5--5-----7--7-----8--8----10-10----12----15----|
C|-------------------------------------------------|

  GTR I
d|-10-10----12-12----13-13----15-15----17----19----|
A|--x--x-----x--x-----x--x-----x--x-----x-----x----|
F|--7--7-----9--9----10-10----12-12----14----16----|
C|-------------------------------------------------|
G|-------------------------------------------------|
C|-------------------------------------------------|
 |
 |GTR II
d|-------------------------------------------------|
A|-------------------------------------------------|
F|--7--7-----9--9----10-10----12-12----14----17----|
C|--7--7-----9--9----10-10----12-12----14----17----|
G|--5--5-----7--7-----8--8----10-10----12----15----|
C|-------------------------------------------------|


| b  bend
| r  release bend
| #\ pick slide down
| .  palm mute
| /  slide up
| \  slide down
| h  hammer-on
| p  pull-off
| ~  vibrato
| +  harmonic
| x  Mute note
===============================================================================

Tap to rate this tab
# A B C D E F G H I J K L M N O P Q R S T U V W X Y Z