Guitaretab - guitar tabs
Song name
# A B C D E F G H I J K L M N O P Q R S T U V W X Y Z

Simple Plan - Love Is A Lie tab

Your Love Is A Lie - Simple Plan

Made by /\/ick Gratton (nickgratton@yahoo.com)
Please send me any fixures to this tab

Intro
e|---------0-------------------------------------|
B|-------0---0-----------3----------3-----------2|
G|-----0-------0-------0--------2-----2-------2--|
D|---2-----------2---0--------0---0-----0---2----|
A|--------------------------0-------------0------|
E|-0---------------3-----------------------------|

Verse 1
Em                   G                                     
I fall asleep by the telephone.                            
 D                         A                 Em            
It's two o'clock and I'm waiting up alone.                 
          G               D                A               
Tell me, where have you been? (where have you been)         
play higher sound than 2.guitar.
 Em                   G          
play low sound because is only 1.Guitar we should hear at most.
I found a note with another name.                          
 D                    A                       Em           
You blow a kiss but it just don't feel the same.           
            G                D                             
'Cuz I can feel that you're gone. (feel that you're gone)

Pre-Chorus 2
   C                    G        D            G                   
    I canít bite my tongue forever, while you try to play it cool.  
         C               G         D                                
    You can hide behind your stories, but donít take me for a fool!
[ Tab from: http://www.guitaretab.com/s/simple-plan/114315.html ]
Chorus
e|-------------------------------------------------------------------------|
B|-------------------------------------------------------------------------|
G|88888-------6666666------------------------------------------------------|
D|88888-44444-6666666-6666666----------------------------------------------|
A|66666-44444-4444444-6666666----------------------------------------------|
E|------22222---------4444444----------------------------------------------|

e|-------------------------------------------------------------------------|
B|-------------------------------------------------------------------------|
G|44444-------66666-------4444444-6666666----------------------------------|
D|44444-44444-66666-66666-4444444-6666666----------------------------------|
A|22222-44444-44444-66666-2222222-4444444----------------------------------|
E|------22222-------44444--------------------------------------------------|

Verse 2
Em          G
You look so innocent,
 D                   A
But the guilt in your voice gives you away.
 Em          G           D            A
Yeah, you know what I mean (know what I mean)
 Em                                      G
How does it feel when you kiss when you know that I trust you
 D                        A
And do you think about me when he fucks you?
 Em          G           D
Could you be more obscene? (be more obscene)

Pre-Chorus 2
 C                              G     D                   G       |
 | So don't try to say you're sorry, or try to make it right.        |
 |             C                             G      D                |
 | And don't waste your breath because it's too late, it's too late!

Then to Chorus
Related for Love Is A Lie tab