Song name
# A B C D E F G H I J K L M N O P Q R S T U V W X Y Z

Since October - Guilty tab

From Since October's debut, This is my Heart, my favorite song Guilty
All guitars tuned to drop C# or Db which is from low to high (Db,Ab,Db,Gb,Bb,Eb)
Guitars 1,3 and 4 are all distortion and guitar 4 is only used in the last 8 bars 
for the solo/outro
guitar 2 has distortion and has heavy delay on it


Intro:
    Q=106
    D5                          D5          A5Bb5 D5BbC5
   4/4
    Gtr I
||----------------------------|---------------------------------||
||o---------------------------|--------------------------------o||
||----------------------------|---------------------------------||
||----------------------------|---------------------------------||
||o-0-8-8-8-8-0-8-8-0-8-8-8-8-|-0-8-8-8-8-0-7s8-8-0-8s10-10-10-o||
||--0---------0-----0---------|-0---------0-7s8-8-0-8s10-10-10--||


Verse:

    D5                        D5
     PM------------------------------------------------
||--------------------------|-------------------------|
||o-------------------------|-------------------------|
||--------------------------|-------------------------|
||--------------------------|-------------------------|
||o--0-0--0---0-0--0--------|---0-----0--0--0-0--0----|
||---0-0--0---0-0--0--------|---0-----0--0--0-0--0----|
|
|   Gtr II
||--10----------------------|-------------------------|
||o----------10--------(10)-|-(10)b11r================|
||--------------------------|-------------------------|
||--------------------------|-------------------------|
||o-------------------------|-------------------------|
||--------------------------|-------------------------|


  C5                            C5                 Bb5       G5
 -------------------|             PM-----------------------------|
|-----------------------------|----------------------------------------||
|-----------------------------|---------------------------------------o||
|-----------------------------|----------------------------------------||
|-----------------------------|----------------------------------------||
|-10-10--10--10-10--10--------|--10--10--10--10-10-8-8-8-8-8-5-5-5----o||
|-10-10--10--10-10--10--------|--10--10--10--10-10-8-8-8-8-8-5-5-5-----||
|
|-10--------------------------|----------------------------------------||
|------------13----------(13)-|-(13)----------------------------------o||
|-----------------------------|----------------------------------------||
|-----------------------------|----------------------------------------||
|-----------------------------|---------------------------------------o||
|-----------------------------|----------------------------------------||

Pre-Chorus:

    D                           Bb                   D G
    PM----|   PM----|   PM|     PM----|    PM------------|
||----------------------------|-------------------------------||
||o---------------------------|------------------------------o||
||----------------------------|-------------------------------||
||----------------------------|-------------------------------||
||o---------8---------8-----8-|---------10-----------------8-o||
||--0-0-0-0---0-0-0-0---0-0---|-8-8-8-8----8-8-8-8-8-0-5-5----||


Chorus

  D5                          D5          BbC5          Bb5
|---------------------------|---------------------------------|
|---------------------------|---------------------------------|
|---------------------------|---------------------------------|
|---------------------------|---------------------------------|
|-0-8-8-8-8-0-8-8-0-8-8-8-8-|-0-8-8-8-8-0-8s10-10-10-10s8-8-8-|
|-0---------0-----0---------|-0---------0-8s10-10-10-10s8-8-8-|


  Bb5    Bbsus2      F5
     PM|
|------------------|---------------------------------|
|------------------|---------------------------------|
|------------------|---------------------------------|
|--------10----10\-|---------------------------------|
|-8--8-8--8-----8\-|-3-3-3---------------------------|
|-8--8-8--8-----8\-|-3-3-3-0-0-3-0-5b6r0-5b6r0-0-0---|


  D5                          D5          BbC5          Bb5
|---------------------------|---------------------------------|
|---------------------------|---------------------------------|
|---------------------------|---------------------------------|
|---------------------------|---------------------------------|
|-0-8-8-8-8-0-8-8-0-8-8-8-8-|-0-8-8-8-8-0-8s10-10-10-10s8-8-8-|
|-0---------0-----0---------|-0---------0-8s10-10-10-10s8-8-8-|


  Bb5    Bbsus2      F5    Fsus2
     PM|
|------------------|---------------|
|------------------|---------------|
|------------------|---------------|
|--------10----10\-|-------5-5-5---|
|-8--8-8--8-----8\-|-3-3-3-3-3-3---|
|-8--8-8--8-----8\-|-3-3-3-3-3-3---|

Verse 2

  D5                            D5
                                 PM--------------|
|---------------------------||--------------------------|
|---------------------------||o-------------------------|
|---------------------------||--------------------------|
|---------------------------||--------------------------|
|-0-8-8-8-8-0-8-8-0-8-8-8-8-||o--0-0--0---0-0--0--------|
|-0---------0-----0---------||---0-0--0---0-0--0--------|
|
|---------------------------||--10----------------------|
|---------------------------||o----------10--------(10)-|
|---------------------------||--------------------------|
|---------------------------||--------------------------|
|---------------------------||o-------------------------|
|---------------------------||--------------------------|


  D5                        C5
    PM----------------------------------------|
|-------------------------|-----------------------------|
|-------------------------|-----------------------------|
|-------------------------|-----------------------------|
|-------------------------|-----------------------------|
|---0-----0--0--0-0--0----|-10-10--10--10-10--10--------|
|---0-----0--0--0-0--0----|-10-10--10--10-10--10--------|
|
|-------------------------|-10--------------------------|
|-(10)b11r================|============13----------(13)-|
|-------------------------|-----------------------------|
|-------------------------|-----------------------------|
|-------------------------|-----------------------------|
|-------------------------|-----------------------------|


                     Bb5       G5
    PM-----------------------------|
|-------------------------------------||
|------------------------------------o||
|-------------------------------------||
|-------------------------------------||
|--10--10--10--10-10-8-8-8-8-8-5-5-5-o||
|--10--10--10--10-10-8-8-8-8-8-5-5-5--||
|
|-------------------------------------||
|-(13)-------------------------------o||
|-------------------------------------||
|-------------------------------------||
|------------------------------------o||
|-------------------------------------||


Pre-Chorus

    D                           Bb                     G
    PM----|   PM----|   PM|     PM----|    PM------------|
||----------------------------|-------------------------------||
||o---------------------------|------------------------------o||
||----------------------------|-------------------------------||
||----------------------------|-------------------------------||
||o---------8---------8-----8-|---------10-----------------8-o||
||--0-0-0-0---0-0-0-0---0-0---|-8-8-8-8----8-8-8-8-8-0-5-5----||

2nd Chorus:

  D5                                      BbC5          Bb5
|---------------------------|---------------------------------|
|---------------------------|---------------------------------|
|---------------------------|---------------------------------|
|---------------------------|---------------------------------|
|-0-8-8-8-8-0-8-8-0-8-8-8-8-|-0-8-8-8-8-0-8s10-10-10-10s8-8-8-|
|-0---------0-----0---------|-0---------0-8s10-10-10-10s8-8-8-|


         Bbsus2      F5
     PM|
|------------------|---------------------------------|
|------------------|---------------------------------|
|------------------|---------------------------------|
|--------10----10\-|---------------------------------|
|-8--8-8--8-----8\-|-3-3-3---------------------------|
|-8--8-8--8-----8\-|-3-3-3-0-0-3-0-5b6r0-5b6r0-0-0---|


  D5                                      BbC5          Bb5
|---------------------------|---------------------------------|
|---------------------------|---------------------------------|
|---------------------------|---------------------------------|
|---------------------------|---------------------------------|
|-0-8-8-8-8-0-8-8-0-8-8-8-8-|-0-8-8-8-8-0-8s10-10-10-10s8-8-8-|
|-0---------0-----0---------|-0---------0-8s10-10-10-10s8-8-8-|


         Bbsus2      F5     Fsus2
     PM|
|------------------|---------------|
|------------------|---------------|
|------------------|---------------|
|--------10----10\-|--------5-5-5--|
|-8--8-8--8-----8\-|-3-3-3--3-3-3--|
|-8--8-8--8-----8\-|-3-3-3--3-3-3--|

Bridge:

    D                       E
    Gtrs I, III
||----------------------------------|
||o---------------------------------|
||--7-7-7-7-7-7-7-7-7-7-7-7-9-9-9-9-|
||--x-x-x-x-x-x-x-x-x-x-x-x-x-x-x-x-|
||o-5-5-5-5-5-5-5-5-5-5-5-5-7-7-7-7-|
||----------------------------------|


  F                                   E
|--------------------------------------------|
|--------------------------------------------|
|-10-10-10-10-10-10-10-10-10-10-10-10-9-9-9-9|
|--x--x--x--x--x--x--x--x--x--x--x--x-x-x-x-x|
|--8--8--8--8--8--8--8--8--8--8--8--8-7-7-7-7|
|--------------------------------------------|


  G
|-------------------------------------------------|
|-------------------------------------------------|
|-12-12-12-12-12-12-12-12-12-12-12-12-12-12-12-12-|
|--x--x--x--x--x--x--x--x--x--x--x--x--x--x--x--x-|
|-10-10-10-10-10-10-10-10-10-10-10-10-10-10-10-10-|
|-------------------------------------------------|


 1.                                                  2.
  A                                                   A                       D+sus2
|--------------------------------------------------||---------------------------------------|
|-------------------------------------------------o||---------------------------------------|
|-14-14-14-14-14-14-14-14-14-14-14-14-14-14-14-14--||-14-14-14-14-14-14-14-14---------------|
|--x--x--x--x--x--x--x--x--x--x--x--x--x--x--x--x--||--x--x--x--x--x--x--x--x---------------|
|-12-12-12-12-12-12-12-12-12-12-12-12-12-12-12-12-o||-12-12-12-12-12-12-12-12-----8-----8---|
|--------------------------------------------------||-------------------------0-0-7-0-0-7---|

Interlude:

  Gtr I
|---------------------------|--------------------|---------------|
|---------------------------|--------------------|---------------|
|---------------------------|--------------------|---------------|
|-7-7-7-7--7-7-7-7--8-8-8-8-|--5-5-5-5---7-------|--(7)----------|
|-5-5-5-5--5-5-5-5--5-5-5-5-|--5-5-5-5---5-------|--(5)----------|
|-0-0-0-0--0-0-0-0--0-0-0-0-|--0-0-0-0---0-------|--(0)----------|
|
| Gtr III
|---------------------------|--------------------|---------------|
|---------------------------|--------------------|---------------|
|---------------------------|--------------------|---------------|
|---------------------------|--------------------|---------------|
|-0---0-0--0---0-0--0---0-0-|--0---0-0---0-------|--(0)----------|
|-0---0-0--0---0-0--0---0-0-|--0---0-0---0-------|--(0)----------|
|
| Gtr II
|---------------------------|--------------------|---------------|
|---------------------------|--------------------|---------------|
|---------------------------|-----------10b12----|-(10)--(10)----|
|---------------------------|--------------------|---------------|
|---------------------------|--------------------|---------------|
|---------------------------|--------------------|---------------|


Chorus

|---------------------------|---------------------------------|
|---------------------------|---------------------------------|
|---------------------------|---------------------------------|
|---------------------------|---------------------------------|
|-0-8-8-8-8-0-8-8-0-8-8-8-8-|-0-8-8-8-8-0-8s10-10-10-10s8-8-8-|
|-0---------0-----0---------|-0---------0-8s10-10-10-10s8-8-8-|


     PM|
|------------------|---------------------------------|
|------------------|---------------------------------|
|------------------|---------------------------------|
|--------10----10\-|---------------------------------|
|-8--8-8--8-----8\-|-3-3-3---------------------------|
|-8--8-8--8-----8\-|-3-3-3-0-0-3-0-5b6r0-5b6r0-0-0---|


|---------------------------|---------------------------------|
|---------------------------|---------------------------------|
|---------------------------|---------------------------------|
|---------------------------|---------------------------------|
|-0-8-8-8-8-0-8-8-0-8-8-8-8-|-0-8-8-8-8-0-8s10-10-10-10s8-8-8-|
|-0---------0-----0---------|-0---------0-8s10-10-10-10s8-8-8-|


     PM|
|------------------|---------------|
|------------------|---------------|
|------------------|---------------|
|--------10----10\-|--------5-5-5--|
|-8--8-8--8-----8\-|-3-3-3--3-3-3--|
|-8--8-8--8-----8\-|-3-3-3--3-3-3--|

Outro/Solo

|-------------------------------------------|-------------------------------------------|
|-------------------------------------------|-------------------------------------------|
|-------------------------------------------|-------------------------------------------|
|-------------------------------------------|-------------------------------------------|
|--0----8-8--8----8-0--8----8-0--8----8-8-8-|--0-----8-8-8--8-0----8s10-10-10-10s=8-8-8-|
|--0----------------0---------0-------------|--0--------------0----8s10-10-10-10s=8-8-8-|
|
| Gtr IV
|  ~~~~~~~~~~~~~~~~~~~~~~~~~~~~~~~~~~~               ~~~~~~~~~~~~~~~~~~~~~~~~~~~~~~~
|-------------------------------------------|-------------------------------------------|
|-13--------13--------13--------13----------|-------------------------------------------|
|-12b14-----12b14-----12b14-----12b14-------|-10-10-------------------------------------|
|-------------------------------------------|-------12-----12---12---12----12----12-----|
|-------------------------------------------|-------------------------------------------|
|-------------------------------------------|-------------------------------------------|


            PM|
|---------------------------|---------------------------------------------|
|---------------------------|---------------------------------------------|
|---------------------------|---------------------------------------------|
|----------------10-----10\-|---------------------------------------------|
|-8---------8-8---8------8\-|--3--3--3------------------------------------|
|-8---------8-8---8------8\-|--3--3--3-0-0--3-0----5b6r===0--5b6r=0-0-0---|
|
|                                    ~~~~~~~~~~~~~~~~~~~~~~~~~~~~~~~
|---------------------------|---------------------------------------------|
|-x-x-15b18-----(15)--------|---------------------------------------------|
|-x-x-----------------------|-10-10---------------------------------------|
|---------------------------|-------12-----12---12-----12---12---12-------|
|---------------------------|---------------------------------------------|
|---------------------------|---------------------------------------------|


|-----------------------------------------------------------------------------------|
|-----------------------------------------------------------------------------------|
|-----------------------------------------------------------------------------------|
|-----------------------------------------------------------------------------------|
|--0--------8----8-----8----8-----0--------8----8-----0--------8----8-----8----8----|
|--0------------------------------0-------------------0-----------------------------|
|
|-10-12-13-12-13-10-10-12---13-12-13-10-10-12---13-12-13-10-10-12---13-12-13---10-|
|---------------------------------------------------------------------------------|
|---------------------------------------------------------------------------------|
|---------------------------------------------------------------------------------|
|---------------------------------------------------------------------------------|
|---------------------------------------------------------------------------------|


|-------------------------------------------|-------------------------------------------|
|-------------------------------------------|-------------------------------------------|
|-------------------------------------------|-------------------------------------------|
|-------------------------------------------|-------------------------------------------|
|--0----8-8--8----8-0--8----8-0--8----8-8-8-|--0-----8-8-8--8-0----8s10-10-10-10s=8-8-8-|
|--0----------------0---------0-------------|--0--------------0----8s10-10-10-10s=8-8-8-|
|
|
|-12-13-12-13-15-12-12-13-12-13-15-12-12-13-12-13-15-12-12-13-12-13-15-12----|
|----------------------------------------------------------------------------|
|----------------------------------------------------------------------------|
|----------------------------------------------------------------------------|
|----------------------------------------------------------------------------|
|----------------------------------------------------------------------------|


        Bbsus2      F5     Fsus2
     PM|
|------------------|---------------|
|------------------|---------------|
|------------------|---------------|
|--------10----10\-|--------5-5-5--|
|-8--8-8--8-----8\-|-3-3-3--3-3-3--|
|-8--8-8--8-----8\-|-3-3-3--3-3-3--|
|
|
|---------------12b13--13b15--|-17b20--------|
|-13b15--15b17----------------|--------------|
|-----------------------------|--------------|
|-----------------------------|--------------|
|-----------------------------|--------------|
|-----------------------------|--------------|
Tap to rate this tab
# A B C D E F G H I J K L M N O P Q R S T U V W X Y Z