Since October - Everything tab

EVERYTHING (From the 2006 Album THIS IS MY HEART) 
As recorded by Since October

	Words and Music by Since October

Gtr I (Db Ab Db Gb Bb Eb) 
Gtr II (Db Ab Db Gb Bb Eb)
 intro
  Gtr I
|---------------------------------|----------------------------------|
|---------------------------------|----------------------------------|
|-7-7-7-7-7-7-7-7-7-7-7-7-7-7-7-7-|-7-7-7-7-7-7-7-7-7-7-7-7-7-7-7-7--|
|-7-7-7-7-7-7-7-7-7-7-7-7-7-7-7-7-|-7-7-7-7-7-7-7-7-7-7-7-7-7-7-7-7--|
|-5-5-5-5-5-5-5-5-5-5-5-5-5-5-5-5-|-5-5-5-5-5-5-5-5-5-5-5-5-5-5-5-5--|
|-0-0-0-0-0-0-0-0-0-0-0-0-0-0-0-0-|-0-0-0-0-0-0-0-0-0-0-0-0-0-0-0-0--|


   verse
                     PM            PM--|
                                                                    3x
||-------------|---------------------------------|------------------||
||o------------|---------------------------------|-----------------o||
||-------------|-----------10s12s9---------------|------------------||
||-------------|---------------------------------|-------5----------||
||o------------|-8-7---7-8-----------------------|---------3-0-3-5-o||
||--0-0--0--0--|-----0-------------5-5-5-5s7-7-7-|-3-3-3------------||


                 PM		The *s mean slowly bend higher
|------------------|-----------------------------------|
|------------------|-------------10--------------------|
|------------------|-----10s12s9----10-12*-12*-12*-12*-|
|------------------|-----------------------------------|
|------------8-7---|-7-8-------------------------------|
|-0-0--0--0------0-|-----------------------------------|


 pre-chorus
|----------------------------------------|-------------------------------------|
|----------------------------------------|-------------------------------------|
|----------------------------------------|-------------------------------------|
|----------------------------------------|------------------------------10-----|
|----------------------------------------|------------------8-----8-7------8-7-|
|-0-0-12-0-0-12-0-10-12-0-0-0-12-0-10-12-|-0-0-12-0-10-12-0---0-0-----0--------|


 chorus
guitar 2's part is kind of hard to hear, but this is really close if not perfect
|---------------------------------------------|
|---------------------------------------------|
|---------------------------------------------|
|-3--3--3--3-3--3--3--3s5--5--5--5-5--5--5--5-|
|-1--1--1--1-1--1--1--1s3--3--3--3-3--3--3--3-|
|---------------------------------------------|
|
| Gtr II
|----------------------------------8----------|
|---------10------10--------------------------|
|-9-10-12----9-10----12-9-10-12-10---12-10-12-|
|---------------------------------------------|
|---------------------------------------------|
|---------------------------------------------|


  PM
|---------------------------------------------|
|---------------------------------------------|
|---------------------------------------------|
|-7-------------------------------------------|
|-5--5--5--5-------5--5-5--5-----5-5--5-------|
|----0--0--0-------0--0-0--0-----0-0--0-------|
|
|----------------------------------8----------|
|---------10------10--------------------------|
|-9-10-12----9-10----12-9-10-12-10---12-10-12-|
|---------------------------------------------|
|---------------------------------------------|
|---------------------------------------------|


|---------------------------------------------|
|---------------------------------------------|
|---------------------------------------------|
|-3--3--3--3-3--3--3--3s5--5--5--5-5--5--5--5-|
|-1--1--1--1-1--1--1--1s3--3--3--3-3--3--3--3-|
|---------------------------------------------|
|
|----------------------------------8----------|
|---------10------10--------------------------|
|-9-10-12----9-10----12-9-10-12-10---12-10-12-|
|---------------------------------------------|
|---------------------------------------------|
|---------------------------------------------|


|--------------------------------------------|
|--------------------------------------------|
|--------------------------------------------|
|--------------------------------------------|
|-5-------------------5------------8\--------|
|----0--0----------0----0--0----0------------|
|
|-----------------------8-------8-----8----8-|
|---------10------10-------------------------|
|-9-10-12----9-10----12---10-10---10----10---|
|--------------------------------------------|
|--------------------------------------------|
|--------------------------------------------|


|---------------------------------------------|----------------------------|
|---------------------------------------------|----------------------------|
|---------------------------------------------|-x-2-2--x-2-2--7-7-7-7-7-7--|
|-3--3--3--3-3--3--3--3s5--5--5--5-5--5--5--5-|-x-3-3--x-3-3--7-7-7-7-7-7--|
|-1--1--1--1-1--1--1--1s3--3--3--3-3--3--3--3-|-x-0-0--x-0-0--5-5-5-5-5-5--|
|---------------------------------------------|----------------------------|
|
|----------------------------------8----------|----------------------------|
|---------10------10--------------------------|----------------------------|
|-9-10-12----9-10----12-9-10-12-10---12-10-12-|-x-2-2--x-2-2--7-7-7-7-7-7--|
|---------------------------------------------|-x-3-3--x-3-3--7-7-7-7-7-7--|
|---------------------------------------------|-x-0-0--x-0-0--5-5-5-5-5-5--|
|---------------------------------------------|----------------------------|


|---------------------------------------------|
|---------------------------------------------|
|---------------------------------------------|
|-3--3--3--3-3--3--3--3s5--5--5--5-5--5--5--5-|
|-1--1--1--1-1--1--1--1s3--3--3--3-3--3--3--3-|
|---------------------------------------------|
|
|----------------------------------8----------|
|---------10------10--------------------------|
|-9-10-12----9-10----12-9-10-12-10---12-10-12-|
|---------------------------------------------|
|---------------------------------------------|
|---------------------------------------------|


|---------------------------------|
|---------------------------------|
|-7-7-7-7-7-7-7-7-7-7-7-7-7-7-7-7-|
|-7-7-7-7-7-7-7-7-7-7-7-7-7-7-7-7-|
|-5-5-5-5-5-5-5-5-5-5-5-5-5-5-5-5-|
|-0-0-0-0-0-0-0-0-0-0-0-0-0-0-0-0-|
|
|---------------------------------|
|---------------------------------|
|-7-7-7-7-7-7-7-7-7-7-7-7-7-7-7-7-|
|-7-7-7-7-7-7-7-7-7-7-7-7-7-7-7-7-|
|-5-5-5-5-5-5-5-5-5-5-5-5-5-5-5-5-|
|-0-0-0-0-0-0-0-0-0-0-0-0-0-0-0-0-|


 verse 2
verse 2s guitar part is played by the bass, and later the guitar comes in and plays this

  PM----------|                             PM---|          PM--|         PM|
|----------------12-12-12-|-x--x--------------------|-------------------------|
|-------------------------|-------10-10-10----------|-8-8-8-------6-6-6-6-----|
|-9-9-9-10-10-10----------|----------------10-10-10-|-------9-9-9---------7-7-|
|-------------------------|-------------------------|-------------------------|
|-------------------------|-------------------------|-------------------------|
|-------------------------|-------------------------|-------------------------|


  PM----------|                             PM---|
|----------------12-12-12-|-x--x--------------------|
|-------------------------|-------10-10-10----------|
|-9-9-9-10-10-10----------|----------------10-10-10-|
|-------------------------|-------------------------|
|-------------------------|-------------------------|
|-------------------------|-------------------------|


                  PM---|
|-x--x------------------------------------|
|-------10-10-10----------8-8-8-8-8-8-8-8-|
|----------------10-10-10-----------------|
|-----------------------------------------|
|-----------------------------------------|
|-----------------------------------------|


 Bridge
Repeat over until the bridge is over
|-----------------------|----|
|-----------------------|----|
|-/10-9-5-2--10-9-12--9-|----|
|---0-0-0-0---0-0--0-10-|----|
|-----------------------|----|
|-----------------------|----|


 chorus/outro
the same thing is played for the other chours except now another guitar comes in and plays this
|---------------------------------|
|---------------------------------|
|-7-7-7-7-7-7-7-7-9-9-9-9-9-9-9-9-|
|-x-x-x-x-x-x-x-x-x-x-x-x-x-x-x-x-|
|-5-5-5-5-5-5-5-5-7-7-7-7-7-7-7-7-|
|---------------------------------|


|-------------------------------------------------|
|-------------------------------------------------|
|-10-10-10-10-10-10-10-10-14-14-14-14-14-14-14-14-|
|--x--x--x--x--x--x--x--x--x--x--x--x--x--x--x--x-|
|--8--8--8--8--8--8--8--8-12-12-12-12-12-12-12-12-|
|-------------------------------------------------|


|---------------------------------|-----|
|---------------------------------|-----|
|-7-7-7-7-7-7-7-7-9-9-9-9-9-9-9-9-|-----|
|-x-x-x-x-x-x-x-x-x-x-x-x-x-x-x-x-|-----|
|-5-5-5-5-5-5-5-5-7-7-7-7-7-7-7-7-|-----|
|---------------------------------|-----|


|---------------------------------|----------------------------|
|---------------------------------|----------------------------|
|-7-7-7-7-7-7-7-7-9-9-9-9-9-9-9-9-|-x-6-6--x-6-6--x-4-4--x-6-6-|
|-x-x-x-x-x-x-x-x-x-x-x-x-x-x-x-x-|-x-x-x--x-x-x--x-x-x--x-x-x-|
|-5-5-5-5-5-5-5-5-7-7-7-7-7-7-7-7-|-x-4-4--x-4-4--x-2-2--x-4-4-|
|---------------------------------|----------------------------|


|---------------------------------|-----------------------------------|
|---------------------------------|-----------------------------------|
|-7-7-7-7-7-7-7-7-9-9-9-9-9-9-9-9-|-7-7-7-7-7-7-7-7-7-7-7-7-7-7-7-7---|
|-x-x-x-x-x-x-x-x-x-x-x-x-x-x-x-x-|-7-7-7-7-7-7-7-7-7-7-7-7-7-7-7-7---|
|-5-5-5-5-5-5-5-5-7-7-7-7-7-7-7-7-|-5-5-5-5-5-5-5-5-5-5-5-5-5-5-5-5---|
|---------------------------------|-0-0-0-0-0-0-0-0-0-0-0-0-0-0-0-0---|



Tap to rate this tab
 
# A B C D E F G H I J K L M N O P Q R S T U V W X Y Z