Since October - In This Moment tab

#----------------------------------PLEASE NOTE---------------------------------#
#This file is the author's own work and represents their interpretation of the #
#song. You may only use this file for private study, scholarship, or research. #
#------------------------------------------------------------------------------#
IN THIS MOMENT
As recorded by Since October
(From the 2009 Album THIS IS MY HEART)
Transcribed by natuMz	Words and Music by Since October

C#5/Abx x 7 7 10 10	F#5/Abx x 7 7 8 10	C#50 0 0 x x x	F#55 5 5 x x x
G#57 7 7 x x x	Bb59 9 9 x x x	C#x x x 7 7 10	

Gtr I (C# G# C# F# A# D#) - 'Clean'
Gtr II (C# G# C# F# A# D#) - 'Atmospheric Noise'
Gtr III (C# G# C# F# A# D#) - 'Clean 2'
Gtr IV (C# G# C# F# A# D#) - 'Dist. Gtr.'
 Intro
  Q=70
  C#
 4/4
  Gtr II
  <
  W          +W
|----------|--------|
|-7--------|-(7)----|
|-7--------|-(7)----|
|----------|--------|
|----------|--------|
|----------|--------|


  C#5/Ab                F#5/Ab
  Gtr I
   S   H..        +S    S S S S H.
|---------------------|------------------|
|-----10---------(10)-|-8-----7----------|
|--7------------------|---7-7---7--------|
|---------------------|------------------|
|---------------------|------------------|
|---------------------|------------------|
|
| Gtr II
| +H         H          H           H
|---------------------|------------------|
|-(7)--------5--------|-7-----------7----|
|-(7)--------6--------|-9-----------7----|
|---------------------|------------------|
|---------------------|------------------|
|---------------------|------------------|


  C#5/Ab                F#5/Ab
   S   H..        +S    S S S S H.
|---------------------|------------------||
|-----10---------(10)-|-8-----7----------||
|--7------------------|---7-7---7--------||
|---------------------|------------------||
|---------------------|------------------||
|---------------------|------------------||
|
| +H         H          H           H
|---------------------|------------------||
|-(7)--------5--------|-7-----------7----||
|-(7)--------6--------|-9-----------7----||
|---------------------|------------------||
|---------------------|------------------||
|---------------------|------------------||


 Verse
  C#5/Ab                 F#5/Ab
    S   H..        +S      S  S S S H.
|----------------------|---------------------|
|------10---------(10)-|---8------7----------|
|---7------------------|------7-7---7--------|
|----------------------|---------------------|
|----------------------|---------------------|
|----------------------|---------------------|
|
| Gtr III
|   W                     +W
|-^10------------------|-(10)----------------|
|-^10------------------|-(10)----------------|
|-^-7------------------|--(7)----------------|
|-^-7------------------|--(7)----------------|
|----------------------|---------------------|
|----------------------|---------------------|
|
| Gtr II
|  +H         H            H            H
|----------------------|---------------------|
|--(7)--------5--------|---7------------7----|
|--(7)--------6--------|---9------------7----|
|----------------------|---------------------|
|----------------------|---------------------|
|----------------------|---------------------|


  C#5/Ab                 F#5/Ab
    S   H..        +S    S S S S H.
|----------------------|------------------|
|------10---------(10)-|-8-----7----------|
|---7------------------|---7-7---7--------|
|----------------------|------------------|
|----------------------|------------------|
|----------------------|------------------|
|
|   W                    W
|-^10------------------|------------------|
|-^10------------------|------------------|
|----------------------|------------------|
|----------------------|------------------|
|----------------------|------------------|
|----------------------|------------------|
|
|  +H         H          H           H
|----------------------|------------------|
|--(7)--------5--------|-7-----------7----|
|--(7)--------6--------|-9-----------7----|
|----------------------|------------------|
|----------------------|------------------|
|----------------------|------------------|


  C#5/Ab                              F#5/Ab
   S   H..                      +S    S S S S H.
|-----------------------------------|----------------------------|
|-----10-----------------------(10)-|-8-----7--------------------|
|--7--------------------------------|---7-7---7------------------|
|-----------------------------------|----------------------------|
|-----------------------------------|----------------------------|
|-----------------------------------|----------------------------|
|
|  S   S   S  Q  S E S S S S S   S    S E   S E  S S S E S E S S
|------------10---------------------|----------------------------|
|-----10----------------------------|----------------------------|
|--7-------7-----------7---7-----7--|---7-----7----7---7---7---7-|
|--------------------7---7---7------|-4-----4----4---5---5---5---|
|-----------------------------------|----------------------------|
|-----------------------------------|----------------------------|
|
| +H               H                  H              H
|-----------------------------------|----------------------------|
|-(7)--------------5----------------|-7--------------7-----------|
|-(7)--------------6----------------|-9--------------7-----------|
|-----------------------------------|----------------------------|
|-----------------------------------|----------------------------|
|-----------------------------------|----------------------------|


  C#5/Ab                              F#5/Ab
   S   H..                      +S    S S S S H.
|-----------------------------------|-----------------------------||
|-----10-----------------------(10)-|-8-----7---------------------||
|--7--------------------------------|---7-7---7-------------------||
|-----------------------------------|-----------------------------||
|-----------------------------------|-----------------------------||
|-----------------------------------|-----------------------------||
|
|  S   S   S  Q  S E S S S S S   S    S E   S E  S S S E S E S S
|------------10---------------------|-----------------------------||
|-----10----------------------------|-----------------------------||
|--7-------7-----------7---7-----7--|---7-----7----7---7---7---7--||
|--------------------7---7---7------|-4-----4----4---5---5---5----||
|-----------------------------------|-----------------------------||
|-----------------------------------|-----------------------------||
|
| +H               H                  H              H
|-----------------------------------|-----------------------------||
|-(7)--------------5----------------|-7--------------7------------||
|-(7)--------------6----------------|-9--------------7------------||
|-----------------------------------|-----------------------------||
|-----------------------------------|-----------------------------||
|-----------------------------------|-----------------------------||


 Chorus
  C#5   G#5     Bb5       F#5
  Gtr IV
  Q  Q  Q  Q    Q  Q  S S S S S S S S
|-------------|-----------------------|
|-------------|-----------------------|
|----2--------|-----------------------|
|-0--0--7--7--|-9--9--x-x-5-5-5-5-5-5-|
|-0--0--7--7--|-9--9--x-x-5-5-5-5-5-5-|
|-0--0--7--7--|-9--9--x-x-5-5-5-5-5-5-|


    C#5             G#5               Bb5             F#5
  S S S S S S S S S S S S S S S S   S S S S S S S S S S S S S S S S
|---------------------------------|----------------------------------||
|---------------------------------|----------------------------------||
|---------------------------------|----------------------------------||
|-x-0-0-0-x-0-0-0-x-7-7-7-x-7-7-7-|-x-9-9-9-x-9-9-9-x-5-5-5-5-5-5-5--||
|-x-0-0-0-x-0-0-0-x-7-7-7-x-7-7-7-|-x-9-9-9-x-9-9-9-x-5-5-5-5-5-5-5--||
|-x-0-0-0-x-0-0-0-x-7-7-7-x-7-7-7-|-x-9-9-9-x-9-9-9-x-5-5-5-5-5-5-5--||


 Interlude
  C#5                 F#5/Ab
  Gtr I
  S  H..        +S     S  S S S H.
|-------------------|-----------------||
|---10---------(10)-|--8------7-------||
|-7-----------------|-----7-7---7-----||
|-------------------|-----------------||
|-------------------|-----------------||
|-------------------|-----------------||
|
| Gtr IV
| >
| W                   +W
|-------------------|-----------------||
|-------------------|-----------------||
|-------------------|-----------------||
|-0-----------------|-(0)-------------||
|-0-----------------|-(0)-------------||
|-0-----------------|-(0)-------------||


 Verse
  C#5/Ab                F#5/Ab
  Gtr I
    S  H..        +S      S  S S S H.
|---------------------|--------------------|
|-----10---------(10)-|---8------7---------|
|---7-----------------|------7-7---7-------|
|---------------------|--------------------|
|---------------------|--------------------|
|---------------------|--------------------|
|
| Gtr III
|   W                    +W
|-^10-----------------|-(10)---------------|
|-^10-----------------|-(10)---------------|
|-^-7-----------------|--(7)---------------|
|-^-7-----------------|--(7)---------------|
|---------------------|--------------------|
|---------------------|--------------------|


  C#5/Ab                F#5/Ab
    S  H..        +S    S S S S H.
|---------------------|---------------|
|-----10---------(10)-|-8-----7-------|
|---7-----------------|---7-7---7-----|
|---------------------|---------------|
|---------------------|---------------|
|---------------------|---------------|
|
|   W                   W
|-^10-----------------|---------------|
|-^10-----------------|---------------|
|---------------------|---------------|
|---------------------|---------------|
|---------------------|---------------|
|---------------------|---------------|


  C#5/Ab                            F#5/Ab
  S  H..                      +S    S S S S H.
|---------------------------------|----------------------------|
|---10-----------------------(10)-|-8-----7--------------------|
|-7-------------------------------|---7-7---7------------------|
|---------------------------------|----------------------------|
|---------------------------------|----------------------------|
|---------------------------------|----------------------------|
|
| S  S   S  Q  S E S S S S S   S    S E   S E  S S S E S E S S
|----------10---------------------|----------------------------|
|---10----------------------------|----------------------------|
|-7------7-----------7---7-----7--|---7-----7----7---7---7---7-|
|------------------7---7---7------|-4-----4----4---5---5---5---|
|---------------------------------|----------------------------|
|---------------------------------|----------------------------|


  C#5/Ab                            F#5/Ab
  S  H..                      +S    S S S S H.
|---------------------------------|-----------------------------||
|---10-----------------------(10)-|-8-----7---------------------||
|-7-------------------------------|---7-7---7-------------------||
|---------------------------------|-----------------------------||
|---------------------------------|-----------------------------||
|---------------------------------|-----------------------------||
|
| S  S   S  Q  S E S S S S S   S    S E   S E  S S S E S E S S
|----------10---------------------|-----------------------------||
|---10----------------------------|-----------------------------||
|-7------7-----------7---7-----7--|---7-----7----7---7---7---7--||
|------------------7---7---7------|-4-----4----4---5---5---5----||
|---------------------------------|-----------------------------||
|---------------------------------|-----------------------------||


   Chorus
    C#5   G#5     Bb5       F#5
    Gtr IV
    Q  Q  Q  Q    Q  Q  S S S S S S S S
||--------------|-----------------------|
||o-------------|-----------------------|
||--------------|-----------------------|
||--0--0--7--7--|-9--9--x-x-5-5-5-5-5-5-|
||o-0--0--7--7--|-9--9--x-x-5-5-5-5-5-5-|
||--0--0--7--7--|-9--9--x-x-5-5-5-5-5-5-|


    C#5             G#5               Bb5             F#5
  S S S S S S S S S S S S S S S S   S S S S S S S S S S S S S S S S
|---------------------------------|----------------------------------||
|---------------------------------|---------------------------------o||
|---------------------------------|----------------------------------||
|-x-0-0-0-x-0-0-0-x-7-7-7-x-7-7-7-|-x-9-9-9-x-9-9-9-x-5-5-5-5-5-5-5--||
|-x-0-0-0-x-0-0-0-x-7-7-7-x-7-7-7-|-x-9-9-9-x-9-9-9-x-5-5-5-5-5-5-5-o||
|-x-0-0-0-x-0-0-0-x-7-7-7-x-7-7-7-|-x-9-9-9-x-9-9-9-x-5-5-5-5-5-5-5--||


 Interlude
  C#5                 F#5/Ab
  Gtr I
  S  H..        +S     S  S S S H.
|-------------------|-----------------||
|---10---------(10)-|--8------7-------||
|-7-----------------|-----7-7---7-----||
|-------------------|-----------------||
|-------------------|-----------------||
|-------------------|-----------------||
|
| Gtr IV
| >
| W                   +W
|-------------------|-----------------||
|-------------------|-----------------||
|-------------------|-----------------||
|-0-----------------|-(0)-------------||
|-0-----------------|-(0)-------------||
|-0-----------------|-(0)-------------||


 Bridge
  Bb5   F#5     C#5   G#5     Bb5   F#5     C#5   G#5
  Gtr IV
  Q  Q  Q  Q    Q  Q  Q  Q    Q  Q  Q  Q    Q  Q  Q  Q
|-------------|-------------|-------------|-------------|
|-------------|-------------|-------------|-------------|
|-------------|-------------|-------------|-------------|
|-9--9--5--5--|-0--0--7--7--|-9--9--5--5--|-0--0--7--7--|
|-9--9--5--5--|-0--0--7--7--|-9--9--5--5--|-0--0--7--7--|
|-9--9--5--5--|-0--0--7--7--|-9--9--5--5--|-0--0--7--7--|


      Bb5             F#5               C#5             G#5
    S S S S S S S S S S S S S S S S   S S S S S S S S S S S S S S S S
||----------------------------------|-----------------------------------||
||o---------------------------------|----------------------------------o||
||----------------------------------|-----------------------------------||
||--x-9-9-9-x-9-9-9-x-5-5-5-x-5-5-5-|-x-0-0-0-x-0-0-0-x-7-7-7-x-7-7-7---||
||o-x-9-9-9-x-9-9-9-x-5-5-5-x-5-5-5-|-x-0-0-0-x-0-0-0-x-7-7-7-x-7-7-7--o||
||--x-9-9-9-x-9-9-9-x-5-5-5-x-5-5-5-|-x-0-0-0-x-0-0-0-x-7-7-7-x-7-7-7---||


 3/4
  H.
|-------||
|-------||
|-------||
|-9-----||
|-7-----||
|-7-----||


   Chorus
    C#5   G#5     Bb5       F#5
   4/4
    Q  Q  Q  Q    Q  Q  S S S S S S S S
||--------------|-----------------------|
||o-------------|-----------------------|
||--------------|-----------------------|
||--0--0--7--7--|-9--9--x-x-5-5-5-5-5-5-|
||o-0--0--7--7--|-9--9--x-x-5-5-5-5-5-5-|
||--0--0--7--7--|-9--9--x-x-5-5-5-5-5-5-|


    C#5             G#5               Bb5             F#5
  S S S S S S S S S S S S S S S S   S S S S S S S S S S S S S S S S
|---------------------------------|-------------------------------------||
|---------------------------------|------------------------------------o||
|---------------------------------|-------------------------------------||
|-x-0-0-0-x-0-0-0-x-7-7-7-x-7-7-7-|-x-9-9-9-x-9-9-9-x-5-5-5-5-5-5-5-----||
|-x-0-0-0-x-0-0-0-x-7-7-7-x-7-7-7-|-x-9-9-9-x-9-9-9-x-5-5-5-5-5-5-5----o||
|-x-0-0-0-x-0-0-0-x-7-7-7-x-7-7-7-|-x-9-9-9-x-9-9-9-x-5-5-5-5-5-5-5-----||


 Outro
  C#                  F#5/Ab
  Gtr I
  S  H..        +S     S  S S S H.
|-------------------|-------------------|
|---10---------(10)-|--8------7---------|
|-7-----------------|-----7-7---7-------|
|-------------------|-------------------|
|-------------------|-------------------|
|-------------------|-------------------|
|
| Gtr IV
| >
| W                   +W
|-------------------|-------------------|
|-------------------|-------------------|
|-------------------|-------------------|
|-0-----------------|-(0)---------------|
|-0-----------------|-(0)---------------|
|-0-----------------|-(0)---------------|


                      H.=H
  C#5/Ab              C#
  S  H..        +S    S E.  S   E. S E.  S   E.
|-------------------|---------------------------|
|---10---------(10)-|-7----(7)-------7------(7)-|
|-7-----------------|---7------(7)-7----(7)-----|
|-------------------|---------------------------|
|-------------------|---------------------------|
|-------------------|---------------------------|
|
| W                   W
|-------------------|---------------------------|
|-------------------|---------------------------|
|-------------------|---------------------------|
|-------------------|---------------------------|
|-------------------|---------------------------|
|-------------------|---------------------------|


  Q=50
  W
|------*|
|------*|
|-7----*|
|------*|
|------*|
|------*|
|
| W
|------*|
|------*|
|------*|
|------*|
|------*|
|------*|


 

Duration Legend
---------------
W - whole; H - half; Q - quarter; E - 8th; S - 16th; T - 32nd; X - 64th; a - acciaccatura
+ - note tied to previous; . - note dotted; .. - note double dotted
Uncapitalized letters represent notes that are staccato (1/2 duration)
Irregular groupings are notated above the duration line
Duration letters will always appear directly above the note/fret number it represents the
duration for.  Duration letters with no fret number below them represent rests.  Multi-
bar rests are notated in the form Wxn, where n is the number of bars to rest for.  Low
melody durations appear below the staff

Tablature Legend
----------------
 h   - hammer-on
 p   - pull-off
 b   - bend
 pb  - pre-bend
 r   - bend release (if no number after the r, then release immediately)
 /\  - slide into or out of (from/to "nowhere")
 s   - legato slide
 S   - shift slide
 - natural harmonic
[n]  - artificial harmonic
n(n) - tapped harmonic
 ~   - vibrato
 tr  - trill
 T   - tap
 TP  - trem. picking
 PM  - palm muting
\n/  - tremolo bar dip; n = amount to dip
 \n  - tremolo bar down
 n/  - tremolo bar up
/n\  - tremolo bar inverted dip
 =   - hold bend; also acts as connecting device for hammers/pulls
 <> - volume swell (louder/softer)
 x   - on rhythm slash represents muted slash
 o   - on rhythm slash represents single note slash

Misc Legend
-----------
 |  - bar
||  - double bar
||o - repeat start
o|| - repeat end
*|  - double bar (ending)
 :  - bar (freetime)
 $  - Segno
 &  - Coda
Tempo markers -  = BPM(8/16=s8/s16), where s8 = swing 8ths, s16 = swing 16ths

 
** Generated using Power Tab Editor by Brad Larsen: The Official Power Tab Web Site
Tap to rate this tab
 
# A B C D E F G H I J K L M N O P Q R S T U V W X Y Z