Song name
# A B C D E F G H I J K L M N O P Q R S T U V W X Y Z

Since October - My Heart tab

MY HEART
As recorded by Since October
(From the 2008 Album THIS IS MY HEART)
Transcribed by Aidan (hairhockey@hotmail.com)	Words and Music by Since October

Gtr I (Db Ab Db Gb Bb Eb) - 'Heavy Distortion 1'
Gtr II (Db Ab Db Gb Bb Eb) - 'Heavy Distortion 2'
Gtr III (Db Ab Db Gb Bb Eb) - 'Clean '
 Intro
  Q=170
 4/4
  Gtr I
            PM-------------------------------------------|
|---------|----------------------|-----------------------|
|---------|----------------------|-----------------------|
|---------|----------------------|-----------------------|
|---------|----------------------|-----------------------|
|---------|-0-10-12-0-10-12-0-13-|-0-0-10-0-12-0-13-13---|
|---------|-0-10-12-0-10-12-0-13-|-0-0-10-0-12-0-13-13---|


 -----------------------------------------------|
|----------------------|------------------------|
|----------------------|------------------------|
|----------------------|------------------------|
|----------------------|------------------------|
|-0-10-12-0-10-12-0-13-|-13-13-13-7-7-7-7-7-----|
|-0-10-12-0-10-12-0-13-|-13-13-13-7-7-7-7-7-----|


|----------------------|---------------------|
|----------------------|---------------------|
|----------------------|---------------------|
|----------------------|---------------------|
|----------------------|---------------------|
|-0-10-12-0-10-12-0-13-|-0-0-10-0-12-0-13-13-|


|--------------------|-----------------|
|--------------------|-----------------|
|--------------------|-----------------|
|--------------------|-7---------------|
|--------------------|-7-----10---10---|
|-0-10-12-0-10-12-0--|-7----------10---|


   Verse
    $
||---------------|----------------------|
||o--------------|----------------------|
||---------------|----------------------|
||---------------|----------------------|
||o-0----6-6-6-0-|-(0)-0-0--13-13-13-13-|
||--0----------0-|-(0)-0-0--------------|


                      PM------------------------|
|-------------------|---------------------------|
|-------------------|-----------------------o---|
|-------------------|---------------------------|
|-------------------|---------------------------|
|--0-0--13-13-13-13-|-0-12-12-0-13-13-0-10--o---|
|--0-0--------------|-0-12-12-0-13-13-0-10------|


|--------------|----------------------|
|--------------|----------------------|
|--------------|----------------------|
|--------------|----------------------|
|-0----6-6-6-0-|-(0)-0-0--13-13-13-13-|
|-0----------0-|-(0)-0-0--------------|
|
| Gtr II
|--------------|----------------------|
|--------------|----------------------|
|--------------|----------------------|
|--------------|----------13-13-13-13-|
|-0----6-6-6-0-|-(0)-0-0--------------|
|-0----------0-|-(0)-0-0--------------|


                             PM-----------------------|
|-----------------------|-----------------------------|
|-----------------------|-----------------------------|
|-----------------------|-----------------------------|
|-----------------------|-----------------------------|
|----0-0----13-13-13-13-|----0-12-12--0-13-13--0-10---|
|----0-0----------------|----0-12-12--0-13-13--0-10---|
|
|                         PM--------------------------|
|-----------------------|-----------------------------|
|-----------------------|-----------------------------|
|-----------------------|-----------------------------|
|-----------------------|-----------------------------|
|--0-0---13-13-13-13----|-0-12-12--0-13-13--0-10------|
|--0-0------------------|-0-12-12--0-13-13--0-10------|


|--------------|----------------------|
|--------------|----------------------|
|--------------|----------------------|
|--------------|----------------------|
|-0----6-6-6-0-|-(0)-0-0--13-13-13-12-|
|-0----------0-|-(0)-0-0--------------|
|
|--------------|----------------------|
|--------------|----------------------|
|--------------|----------------------|
|--------------|----------13-13-13-12-|
|-0----6-6-6-0-|-(0)-0-0--------------|
|-0----------0-|-(0)-0-0--------------|


                        PM---------------------|
|---------------------|------------------------|
|---------------------|------------------------|
|---------------------|------------------------|
|---------------------|------------------------|
|-12-0-0--13-13-13-13-|-0-12-12-0-13-13-0-10---|
|----0-0--------------|-0-12-12-0-13-13-0-10---|
|
|                       PM---------------------|
|---------------------|------------------------|
|---------------------|------------------------|
|---------------------|------------------------|
|-12------------------|------------------------|
|----0-0--13-13-13-13-|-0-12-12-0-13-13-0-10---|
|----0-0--------------|-0-12-12-0-13-13-0-10---|


  PM-------------------------------------------|
|----------------------|-----------------------|
|----------------------|-----------------------|
|----------------------|-----------------------|
|----------------------|-----------------------|
|----------------------|-----------------------|
|-0-10-12-0-10-12-0-13-|-0-0-10-0-12-0-13-13---|


 ---------------------------------------------|
|----------------------|----------------------|
|----------------------|----------------------|
|----------------------|----------------------|
|----------------------|----------------------|
|----------------------|----------------------|
|-0-10-12-0-10-12-0-13-|-13-13-13-7-7-7-7-7---|


 Pre-Chorus

|-----------------|---------------|-----------------|--------------|
|-----------------|---------------|-----------------|--------------|
|-----------------|---------------|-----------------|--------------|
|--0--------------|--(0)----------|--8--------------|--(8)---------|
|--0--------------|--(0)----------|--8--------------|--(8)---------|
|--0--------------|--(0)----------|--8--------------|--(8)---------|
|
| Gtr III
|-------------10--|-(10)----------|-------------10--|-(10)---------|
|---------10------|---------------|---------10------|-------8------|
|-----10----------|-------10------|-----10----------|--------------|
|-12--------------|---------------|-12--------------|--------------|
|-----------------|---------------|-----------------|--------------|
|-----------------|---------------|-----------------|--------------|


|-----------------|---------------|----------------|----------------|
|-----------------|---------------|----------------|----------------|
|-----------------|---------------|----------------|----------------|
|--5--------------|--(5)----------|--3-------------|--5-------------|
|--5--------------|--(5)----------|--3-------------|--3-------------|
|--5--------------|--(5)----------|--3-------------|--2-------------|
|
|-------------10--|-(10)----------|----------------|----------------|
|---------10------|---------------|---------10--8--|----------------|
|-----10----------|-------10------|-----10---------|-----9--12--10--|
|-12--------------|---------------|-12-------------|-10-------------|
|-----------------|---------------|----------------|----------------|
|-----------------|---------------|----------------|----------------|


 Chorus
|-----------------|-----------------|
|-----------------|-----------------|
|-----------------|-----------------|
|-----------------|-----------------|
|-8-8-8-8-8-8-8-8-|-8-8-8-8-8-8-8-8-|
|-0-0-0-0-0-0-0-0-|-0-0-0-0-0-0-0-0-|


|-------------------------|-------------------------|
|-------------------------|-------------------------|
|-------------------------|-------------------------|
|-------------------------|-------------------------|
|-10-10-10-10-10-10-10-10-|-10-10-10-10-10-10-10-10-|
|--8--8--8--8--8--8--8--8-|--8--8--8--8--8--8--8--8-|


|-----------------|-----------------|--------------------|--------------------|
|-----------------|-----------------|--------------------|--------------------|
|-----------------|-----------------|--------------------|--------------------|
|-----------------|-----------------|--------------------|--------------------|
|-7-7-7-7-7-7-7-7-|-7-7-7-7-7-7-7-7-|--3-3--3-3--3-3-3-3-|--3-3-3-3--3-3--3-3-|
|-5-5-5-5-5-5-5-5-|-5-5-5-5-5-5-5-5-|--3-3--3-3--3-3-3-3-|--2-2-2-2--2-2--2-2-|
|
| Gtr III
|-----------------|-----------------|--------------------|--------------------|
|-----------------|-----------------|-----------10---8---|--------------------|
|-----------------|-----------------|------10------------|------9---12---10---|
|-----------------|-----------------|-12-----------------|-10-----------------|
|-----------------|-----------------|--------------------|--------------------|
|-----------------|-----------------|--------------------|--------------------|


|--------------|----------------------|
|--------------|----------------------|
|--------------|----------------------|
|--------------|----------------------|
|-0----6-6-6-0-|-(0)-0-0--13-13-13-13-|
|-0----------0-|-(0)-0-0--------------|


                                    D.S.
                      PM---------------------|
|-------------------|------------------------|
|-------------------|------------------------|
|-------------------|------------------------|
|-------------------|------------------------|
|--0-0--13-13-13-13-|-0-12-12-0-13-13-0-10---|
|--0-0--------------|-0-12-12-0-13-13-0-10---|


After playing all of this through, go back to the verse and play through the entire 
pre-chorus and chorus before continuing


  PM-------------------------------------------------------------------|
|----------------------|----------------------|------------------------|
|----------------------|----------------------|------------------------|
|----------------------|----------------------|------------------------|
|----------------------|----------------------|------------------------|
|-0-12-12-0-13-13-0-10-|-0-12-12-0-13-13-0-10-|------------------------|
|-0-12-12-0-13-13-0-10-|-0-12-12-0-13-13-0-10-|-0-12-12-0-13-13-0-10---|


 Bridge
|----------------|--------------|----------------|--------------|
|----------------|--------------|----------------|--------------|
|----------------|--------------|----------------|--------------|
|----------------|--------------|----------------|--------------|
|-8--(8)\--0---5-|--x-7----(7)--|-8--(8)\--0---5-|--x-7----(7)--|
|-0--(0)---0---0-|--x-0----(0)--|-0--(0)---0---0-|--x-0----(0)--|


|---------------------------|-------------------------|
|---------------------------|-------------------------|
|---------------------------|-------------------------|
|---------------------------|-------------------------|
|--8----(8)\-----0--------5-|-----x--7-----------(7)--|
|--0----(0)------0--------0-|-----x--0-----------(0)--|
|
| Gtr II
|-10---------12-------13----|----12-------13b15r======|
|----10-10------10-10----10-|-10----10-10-------------|
|---------------------------|-------------------------|
|---------------------------|-------------------------|
|---------------------------|-------------------------|
|---------------------------|-------------------------|


|--------------------|------------------|
|--------------------|------------------|
|--------------------|------------------|
|--------------------|------------------|
|-8---(8)\---0-----5-|---x-7-------(7)--|
|-0---(0)----0-----0-|---x-0-------(0)--|
|
|-6-8--6---5-5-6-5---|------------------|
|------------------8-|-8-6-5---5-6--5---|
|--------------------|-------7----------|
|--------------------|------------------|
|--------------------|------------------|
|--------------------|------------------|


|----------------|-----------------|----------------|-----------------|
|----------------|-----------------|----------------|-----------------|
|----------------|-----------------|----------------|-----------------|
|----------------|-----------------|----------------|-----------------|
|-8--(8)\--0---5-|-----x-7----(7)--|-8--(8)\--0---5-|-----x-7----(7)--|
|-0--(0)---0---0-|-----x-0----(0)--|-0--(0)---0---0-|-----x-0----(0)--|
|
| ~~~~~~~~~~~~~~~~~~~~~~~~~~~~~~~~~~~~~~~~~~~~~~~~~~~~~~~~
|----------------|-----------------|----------------|-----------------|
|-3--------------|-(3)-------------|-5--------------|-(5)-------------|
|----------------|-----------------|----------------|-----------------|
|----------------|-----------------|----------------|-----------------|
|----------------|-----------------|----------------|-----------------|
|----------------|-----------------|----------------|-----------------|


|----------------|-----------------|
|----------------|-----------------|
|----------------|-----------------|
|----------------|-----------------|
|-8--(8)\--0---5-|-----x-7----(7)--|
|-0--(0)---0---0-|-----x-0----(0)--|
|
| ~~~~~~~~~~~~~~~~~~~~~
|----------------|-----------------|
|-6--------------|-(6)-------------|
|----------------|-----------------|
|----------------|-----------------|
|----------------|-----------------|
|----------------|-----------------|


                                          D.S.S.
  PM-------------------------------------------------|
|-------------------------|--------------------------|
|-------------------------|--------------------------|
|-------------------------|--------------------------|
|-------------------------|--------------------------|
|-0----12-12-0-13-13-0-10-|--0--12-12-0-13-13-0-10---|
|-0----12-12-0-13-13-0-10-|--0--12-12-0-13-13-0-10---|
|
|                            ~~~
|-------------------------|------------------------|
|-8b10--------------------|-(8)--------------------|
|-------------------------|------------------------|
|-------------------------|------------------------|
|-------------------------|------------------------|
|-------------------------|------------------------|


After the bridge go back and play the Pre-chorus and chorus and THEN play the outro.


 Outro
|--------------|----------------------|
|--------------|----------------------|
|--------------|----------------------|
|--------------|----------------------|
|-0----6-6-6-0-|-(0)-0-0--13-13-13-13-|
|-0----------0-|-(0)-0-0--------------|


                      PM---------------------|
|-------------------|------------------------|
|-------------------|------------------------|
|-------------------|------------------------|
|-------------------|------------------------|
|--0-0--13-13-13-13-|-0-12-12-0-13-13-0-10---|
|--0-0--------------|-0-12-12-0-13-13-0-10---|


|--------------|----------------------|--------------------||
|--------------|----------------------|-------------------o||
|--------------|----------------------|--------------------||
|--------------|----------------------|--------------------||
|-0----6-6-6-0-|-(0)-0-0--13-13-13-12-|-12-0-0--13-13-0-0-o||
|-0----------0-|-(0)-0-0--------------|----0-0--------0-0--||

Tablature Legend
----------------
 h   - hammer-on
 p   - pull-off
 b   - bend
 pb  - pre-bend
 r   - bend release (if no number after the r, then release immediately)
 /\  - slide into or out of (from/to "nowhere")
 s   - legato slide
 S   - shift slide
 - natural harmonic
[n]  - artificial harmonic
n(n) - tapped harmonic
 ~   - vibrato
 tr  - trill
 T   - tap
 TP  - trem. picking
 PM  - palm muting
\n/  - tremolo bar dip; n = amount to dip
 \n  - tremolo bar down
 n/  - tremolo bar up
/n\  - tremolo bar inverted dip
 =   - hold bend; also acts as connecting device for hammers/pulls
 <> - volume swell (louder/softer)
 x   - on rhythm slash represents muted slash
 o   - on rhythm slash represents single note slash

Misc Legend
-----------
 |  - bar
||  - double bar
||o - repeat start
o|| - repeat end
*|  - double bar (ending)
 :  - bar (freetime)
 $  - Segno
 &  - Coda
Tempo markers -  = BPM(8/16=s8/s16), where s8 = swing 8ths, s16 = swing 16ths
Tap to rate this tab
# A B C D E F G H I J K L M N O P Q R S T U V W X Y Z