Song name
# A B C D E F G H I J K L M N O P Q R S T U V W X Y Z

Skrewdriver - Tuesdays Gone tab

----------------------------------------------------------------------------
			     TUESDAY'S GONE - Skrewdriver
----------------------------------------------------------------------------
Tabbed by: Benjamin Gheysels
Date: 2005-03-09 

Tuning: standard tuning

| h  hammer-on
| p  pull-off
| ~  vibrato
| b  bend
| .  mute note
| ps pick scrape


This is very easy indeed! Listen to the record to get the strumming right


lead at beginning:

e|-------------------------------------------------------------------------|
B|-------------------------------------------------------------------------|
G|--6-6-------6hold----6hold-7-9-7p6hold----6-6-6---------------6----------|
D|------9-7-9-------------------------------------9-7-9hold-------9-7hold--|
A|-------------------------------------------------------------------------|
E|-------------------------------------------------------------------------|

e|-------------------------------------------9hold-7---------------------|
B|--------7------------7hold----9--------------------10-10---10p9p7hold--|
G|--6-6-9---9hold----9------------6-7hold--------------------------------|
D|-----------------------------------------------------------------------|
A|-----------------------------------------------------------------------|
E|-----------------------------------------------------------------------|


this is the background for the lead, as well as the verse:
    A5   E5   G#5  D5	   A5   E5   D5   D5
e|--------------------------------------------|
B|--------------------------------------------|
G|-----------------7------------------7----7--|
D|--7----2----4----7--------7----2----7----7--|
A|--7----2----4----5--------7----2----5----5--|
E|--5----0----2-------------5----0------------|


chorus:
    A5  G5  D5  D5	 A5  E5  D5  D5
e|--------------------------------------------|
B|--------------------------------------------|
G|----------7---7----------------7---7--------|
D|--7---5---7---7--------7---2---7---7--------|
A|--7---5---5---5--------7---2---5---5--------|
E|--5---3----------------5---0----------------|


That's it! Enjoy!


============================================================================

============================================================================
Tap to rate this tab
 
# A B C D E F G H I J K L M N O P Q R S T U V W X Y Z