Song name
# A B C D E F G H I J K L M N O P Q R S T U V W X Y Z

Skrewdriver - Wasted Life tab

----------------------------------------------------------------------------
			     WASTED LIFE - Skrewdriver
----------------------------------------------------------------------------
Tabbed by: Benjamin Gheysels
Date: 2006-03-09
 

Tuning: standard tuning

| h  hammer-on
| p  pull-off
| ~  vibrato
| b  bend
| .  mute note
| ps pick scrape


verse riff:

- first 2 times: let chords ring (this is the intro)

- then: singing starts (let chords ring - listen to record to get 
                        strumming right)

- next: now you kinda palm mute the chords

    E5   B5   A5   E5
e|---------------------------------|
B|---------------------------------|
G|-------4----2--------------------|
D|--2----4----2----2---------------|
A|--2----2----0----2---------------|
E|--0--------------0---------------|


Chorus: play this twice

    B5   A5   E5   B5
e|---------------------------------|
B|---------------------------------|
G|--4----2---------4---------------|
D|--4----2----2----4---------------|
A|--2----0----2----2---------------|
E|------------0--------------------|


verse riff

chorus riff

riff 1: strike each chord one time slowly, play all strings and let ring.
	Play this twice

    E    ?		A     E5
e|--0----x--------------0--------|
B|--0----4--4--5--4-----2--------|
G|--1----4--4--4--4-----2--------|
D|--2----4--4--4--4-----2-----2--|
A|--2----x--------------0-----2--|
E|--0----x--------------0-----0--|


riff 2: play this twice

    E5		B5	    A5		E5
e|-----3-3------------------------------------------|
B|-----x-x---------4-4------------------------------|
G|-----x-x------4--x-x------2--2-2------------------|
D|--2--2-2------4--4-4------2--2-2------2--2-2------|
A|--2--2-2------2--2-2------0--0-0------2--2-2------|
E|--0--0-0------------------------------0--0-0------|


verse riff

end with E-chord


That's it! Enjoy!

============================================================================

============================================================================
Tap to rate this tab
# A B C D E F G H I J K L M N O P Q R S T U V W X Y Z