Song name
# A B C D E F G H I J K L M N O P Q R S T U V W X Y Z

Skrewdriver - Showdown tab

Intro:
e|------------------------------------|
g|----------------7-7-----------------|
d|--2-2----5-5----7-7----7--7-7--3----|
a|--2-2----5-5----5-5----7--7-7--3----|
e|--0-0----3-3-----------5--5-5--5----|

The verse is pretty much the same as the intro, listen to the song.

Chorus:
e|---------------------------------|
b|---------------------------------|
g|--------7---------------7--------|
d|--2-----7--7------2-----7--7--3--|
a|--2-----5--7------2-----5--7--3--|
e|--0--------5------0--------5--5--|
......."Our Day"......."out of our way"

This is my first tab so I don't know if this is correct, it sounds good to me. Maybe 
I'll tab out another Skrewdriver song...
Tap to rate this tab
# A B C D E F G H I J K L M N O P Q R S T U V W X Y Z