Song name
# A B C D E F G H I J K L M N O P Q R S T U V W X Y Z

Skrewdriver - Tomorrow Belongs To Me tab

Help us improve GuitareTab! Take a short survey!
You're on your own with the intro.


Verse:
|-----------------|
|-----------------|
|----------5------|
|--5---3---5---5--|
|--5---3---3---5--|
|--3---1-------3--|

Chorus:
|-----------------|
|-----------------|
|--7--5-----------|
|--7--5--5---3-3--|
|--5--3--5---3-3--|
|--------3---1-5--|


So, I got bored and decided to tab out the piano intro to Saga's version of Tomorrow 
to Me. So here's my attempt:

|-----------------------------------------------------|
|--5--3--1--3--------------6--5-----3--5--3--1--------|
|--------------5--3--5--5--------5--------------3--5--|
|-----------------------------------------------------|
|-----------------------------------------------------|
|-----------------------------------------------------|

Enjoy!
Related for Tomorrow Belongs To Me tab