Song name
# A B C D E F G H I J K L M N O P Q R S T U V W X Y Z

Skrewdriver - Hail The New Dawn tab

Verse\Intro:

e|---------------------------------|
b|---------------------------------|
g|--111111-777777----------111111--|
d|--222222-777777--777777--222222--|
a|--222222-555555--777777--222222--|
e|--000000---------555555--000000--|


Pre-Chorus:
e|--------------------------|
b|--------------------------|
g|-------7--7-5--5----------|
d|--5--5-7--7-5--5-5---555--|
a|--5--5-5--5-3--3-5---555--|
e|--3--3-----------3---333--|
The Street are still....

Chrous:
e|---------------|
b|---------------|
g|--1----7-------|
d|--2----7----7--|
a|--2----5----7--|
e|--0---------5--|
Hail! the  New Dawn!
Tap to rate this tab
# A B C D E F G H I J K L M N O P Q R S T U V W X Y Z