Song name
# A B C D E F G H I J K L M N O P Q R S T U V W X Y Z

Slipknot - Psychosocial tab

To go with the solo tab I submitted, I suggest learning the solo sperately from the rest 
the song. Again this is the most accurate tab I've found and I think people may benefit 
it. To achieve a similar sound I suggest the following settings, but you can 
change it to how you like.

Tuning: A, E, a, D, F#, B
Gain: 7
Bass: 10
Mid: 6
Treble: 7

Intro: The pinched harmonics are on the third fret because its possible to get a higher 
sound, if you find it diificult on the E string move it up to the a string.

   PM-----------------|        PM      PM------------------------------------|
|----------------------------------------------------------------------------|
|----------------------------------------------------------------------------|
|----------------------------------------------------------------------------|
|----------------------------------------------------------------------------|
|----------------------3*~~~~------------------------------------3*~~~-------|
|--0----0-----0--0--0-----------0-3h5--0--0--0--0--0--0--0--0--0-------------|

  PM         PM---------|           PM         PM----------------------------|
|----------------------------------------------------------------------------|
|----------------------------------------------------------------------------|
|----------------------------------------------------------------------------|
|----------------------------------------------------------------------------|
|--------------------------3*~~~---------------------------------------------|
|--0--3h5----0----0--0--0------------0---3h5---0--0--------------------------|

   PM------------------------------------------------------------------------|
|----------------------------------------------------------------------------|
|----------------------------------------------------------------------------|
|----------------------------------------------------------------------------|
|----------------------------------------------------------------------------|
|----------------------------------------------------------------------------|
|--5--5--5--5--6--6--6--6--8--8--8--8--7--7--7--7----------------------------|

   PM-----------------|        PM      PM------------------------------------|
|----------------------------------------------------------------------------|
|----------------------------------------------------------------------------|
|----------------------------------------------------------------------------|
|----------------------------------------------------------------------------|
|----------------------3*~~~~------------------------------------3*~~~-------|
|--0----0-----0--0--0-----------0-3h5--0--0--0--0--0--0--0--0--0-------------|

  PM         PM---------|           PM         PM----------------------------|
|----------------------------------------------------------------------------|
|----------------------------------------------------------------------------|
|----------------------------------------------------------------------------|
|----------------------------------------------------------------------------|
|--------------------------3*~~~---------------------------------------------|
|--0--3h5----0----0--0--0------------0---3h5---0--0--------------------------|

  PM-----------------------------------------------------------------------|
|--------------------------------------------------------------------------|
|--------------------------------------------------------------------------|
|--------------------------------------------------------------------------|
|--------------------------------------------------------------------------|
|--------------------------------------------------------------------------|
|-5--5--5--5--6--6--6--6--8--8--8--8--7--7--7--7--5--5--5--5--6--6--6--6--8|

PM-------------------------------------------------------------------------|
|--------------------------------------------------------------------------|
|--------------------------------------------------------------------------|
|--------------------------------------------------------------------------|
|--------------------------------------------------------------------------|
|--------------------------------------------------------------------------|
|-8--8--8--7--7--7--7---5---5---5---5---6---6---6---6---8---8---8---8---7--|

|--------------------------------------------------------------------------|
|--------------------------------------------------------------------------|
|--------------------------------------------------------------------------|
|--------------------------------------------------------------------------|
|--------------------5/6---------------------------------------------------|
|-7---7---7---7---7--5/6---------------------------------------------------|

Chorus: It may be useful to note here that the chorus is when they sing "Psychosocial". 
they sing the lyrics "And the rain will kill us all....(etc)" It is actually the pre-chorus.

     PM--|    PM--|          PM--|    PM--|          PM--|    PM-------------|
|----------------------------------------------------------------------------|
|----------------------------------------------------------------------------|
|----------------------------------------------------------------------------|
|----------------------------------------------------------------------------|
|-6--------5--------5/6---6--------5--------5/6---6--------5--------5/6------|
|-6--0--0--5--0--0--5/6---6--0--0--5--0--0--5/6---6--0--0--5--0--0--5/6------|


|--------------------------------------------------------------------------|
|--------------------------------------------------------------------------|
|--------------------------------------------------------------------------|
|--------------------------------------------------------------------------|
|--6--5--3--0--3--5--3--2--------------------------------------------------|
|--6--5--3--0--3--5--3--2--------------------------------------------------|


Verse: The verse is the exact same pattern as the chorus, however their is a quarter 
rest in between the end of the chorus and the beggining of the verse that seperates it.


Pre-Chorus:


                                                    PM-----------------------|
|----------------------------------------------------------------------------|
|----------------------------------------------------------------------------|
|----------------------------------------------------------------------------|
|-----------------------------------3-----3--3------------------------5------|
|--6--6--6--6--6--6--6--1----1--1---1-----1--1--5---5--5--5--5--5--5--3------|
|--6--6--6--6--6--6--6--1----1--1---------------5---5--5--5--5--5--5---------|


|--------------------------------------------------------------------------|
|--------------------------------------------------------------------------|
|--------------------------------------------------------------------------|
|--5--5--8-----8--8----------------------------------3-----3--3------------|
|--3--3--6-----6--6--6--6--6--6--6--6--6--1----1--1--1-----1--1---5--------|
|--------------------6--6--6--6--6--6--6--1----1--1---------------5--------|

  PM-------------------------------------------------------------------------|
|----------------------------------------------------------------------------|
|----------------------------------------------------------------------------|
|----------------------------------------------------------------------------|
|----------------------------------------------------------------------------|
|--5--5--5--5--5--5--5--5--------------0/12\---------------------------------|
|--5--5--5--5--5--5--5--5--------------0/12\---------------------------------|

Breakdown:

|--------------------------------------------------------------------------|
|--------------------------------------------------------------------------|
|--------------------------------------------------------------------------|
|--------------------------------------------------------------------------|
|--------------------------------------------------------------------------|
|--0--0---------------0--0--------0--0-----0--0--0--0------0--0--0--0------|

|--------------------------------------------------------------------------|
|--------------------------------------------------------------------------|
|--------------------------------------------------------------------------|
|--------------------------------------------------------------------------|
|---------------------------------0--------0--0--0--0----------------------|
|--0--0---------------0--0--------0--------0--0--0--0-----------------/12\-|

|--------------------------------------------------------------------------|
|--------------------------------------------------------------------------|
|--------------------------------------------------------------------------|
|--------------------------------------------------------------------------|
|--0--0---------------0--0--------0--0-----0--0--0--0------0--0--0--0------|
|--0--0---------------0--0--------0--0-----0--0--0--0------0--0--0--0------|


              PB 3    BD
|--------------------------------------------------------------------------|
|--------------------------------------------------------------------------|
|--------------------------------------------------------------------------|
|--------------------------------------------------------------------------|
|--0---0--------------------------0--0-----0--0-----0--0--0--0----0--0--0--|
|--0---0--------(7)--------(3)----0--0-----0--0-----0--0--0--0----0--0--0--|


 PB 2   BD
|--------------------------------------------------------------------------|
|--------------------------------------------------------------------------|
|--------------------------------------------------------------------------|
|--------------------------------------------------------------------------|
|--(5)-------(2)-----------------------------------------------------------|
|--------------------------------------------------------------------------|

              PB 3    BD
|--------------------------------------------------------------------------|
|--------------------------------------------------------------------------|
|--------------------------------------------------------------------------|
|--------------------------------------------------------------------------|
|--0---0--------------------------0--0-----0--0-----0--0--0--0----0--0--0--|
|--0---0--------(7)--------(3)----0--0-----0--0-----0--0--0--0----0--0--0--|


 PB 2   BD
|--------------------------------------------------------------------------|
|--------------------------------------------------------------------------|
|--------------------------------------------------------------------------|
|--------------------------------------------------------------------------|
|--(5)-------(2)-----------------------------------------------------------|
|--------------------------------------------------------------------------|


              PB 3    BD
|--------------------------------------------------------------------------|
|--------------------------------------------------------------------------|
|--------------------------------------------------------------------------|
|--------------------------------------------------------------------------|
|--0---0--------------------------0--0-----0--0-----0--0--0--0----0--0--0--|
|--0---0--------(7)--------(3)----0--0-----0--0-----0--0--0--0----0--0--0--|


 PB 2   BD
|--------------------------------------------------------------------------|
|--------------------------------------------------------------------------|
|--------------------------------------------------------------------------|
|--------------------------------------------------------------------------|
|--(5)-------(2)-----------------------------------------------------------|
|--------------------------------------------------------------------------|

              PB 3    BD
|--------------------------------------------------------------------------|
|--------------------------------------------------------------------------|
|--------------------------------------------------------------------------|
|--------------------------------------------------------------------------|
|--0---0--------------------------0--0-----0--0-----0--0--0--0-------------|
|--0---0--------(7)--------(3)----0--0-----0--0-----0--0--0--0-------------|

|--------------------------------------------------------------------------|
|--------------------------------------------------------------------------|
|--------------------------------------------------------------------------|
|--------------------------------------------------------------------------|
|----0-----5/6-------------------------------------------------------------|
|----0-----5/6-------------------------------------------------------------|

Extended Pre-Chorus:


                                                    PM-----------------------|
|----------------------------------------------------------------------------|
|----------------------------------------------------------------------------|
|----------------------------------------------------------------------------|
|-----------------------------------3-----3--3------------------------5------|
|--6--6--6--6--6--6--6--1----1--1---1-----1--1--5---5--5--5--5--5--5--3------|
|--6--6--6--6--6--6--6--1----1--1---------------5---5--5--5--5--5--5---------|


|--------------------------------------------------------------------------|
|--------------------------------------------------------------------------|
|--------------------------------------------------------------------------|
|--5--5--8-----8--8----------------------------------3-----3--3------------|
|--3--3--6-----6--6--6--6--6--6--6--6--6--1----1--1--1-----1--1---5--------|
|--------------------6--6--6--6--6--6--6--1----1--1---------------5--------|

  PM-------------------------------------------------------------------------|
|----------------------------------------------------------------------------|
|----------------------------------------------------------------------------|
|----------------------------------------------------------------------------|
|----------------------------------------------------------------------------|
|--5--5--5--5--5--5--5--5--5--5--5--5----------------------------------------|
|--5--5--5--5--5--5--5--5--5--5--5--5--5-5-5-5-5-5-5-5-----------------------|

Interlude: Play this 4 times.

   PM------------------------------------------------------------------------|
|----------------------------------------------------------------------------|
|----------------------------------------------------------------------------|
|----------------------------------------------------------------------------|
|--0--0--7--7--0--0--0--0--5--5--9--9--4--4--8--8--0--0--7--7--0--0--0--0----|
|----------------------------------------------------------------------------|
|----------------------------------------------------------------------------|

  PM-------------------------------------------------------------------------|
|----------------------------------------------------------------------------|
|----------------------------------------------------------------------------|
|----------------------------------------------------------------------------|
|-5--5--9--9--9*-------------------------------------------------------------|
|----------------------------------------------------------------------------|
|----------------------------------------------------------------------------|

Outro:Play the first line of tab 3 times then finish with the second.

|--------------------------------------------------------------------------|
|--------------------------------------------------------------------------|
|--------------------------------------------------------------------------|
|--------------------------------------------------------------------------|
|--0--0-------0--0------0--0------0--0-----0--0--0--0------0--0--0--3----2-|
|--0--0-------0--0------0--0------0--0-----0--0--0--0------0--0--0--3----2-|

|--------------------------------------------------------------------------|
|--------------------------------------------------------------------------|
|--------------------------------------------------------------------------|
|--------------------------------------------------------------------------|
|--------------------------------------------------------------------------|
|--0--0-------0--0------0--0------0--0-----0--0--0--0----------------------|


 /  slide
 * pinch harmonic
 PB pre-bend
 BD bend down
 PM palm mute
Tap to rate this tab
 
# A B C D E F G H I J K L M N O P Q R S T U V W X Y Z