Song name
# A B C D E F G H I J K L M N O P Q R S T U V W X Y Z

Stereophonics - Trouble tab

The song isn't actually released yet but i watched them play this song on Jools Holland
Track #4 on the Keep Calm And Carry On album

Chords:
    EADGBe
F#1 244xxx
A1  577xxx
B1  799xxx
E2  02xxxx
F#2 24xxxx
G2  35xxxx
A2  57xxxx
B2  79xxxx

  Intro Riff         Main Riff
e|------------------|----------------------------------|
B|------------------|----------------------------------|
G|------------------|----------------------------------|
D|-4--4-4--7-7-9--7-|-4xx4-4--7--9--7--4xx4-4--7--9--7-|
A|-4--4-4--7-7-9--7-|-4xx4-4--7--9--7--4xx4-4--7--9--7-|
E|-2--2-2--5-5-7--5-|-2xx2-2--5--7--5--2xx2-2--5--7--5-|

Chorus Break Riff
e|------------------------------|
B|------------------------------|
G|------------------------------|
D|------------------------------|
A|------------------------------|
E|-2--2-2-5-2-2-5-2-2-5-2-5-2-2-|

Bridge Riff
e|-------------------------------|
B|-------------------------------|
G|-------------------------------|
D|-------------------------------|
A|-2--2--2-2-2-2-4-4-4-4-5-5-5-5-|
E|-0--0--0-0-0-0-2-2-2-2-3-3-3-3-|

Main Riff x4

B1
Oh, can you feel it, there's no money in this town
Intro Riff
naa, na na, naa, na na x2
B1
Oh, can you see it, there's people dieing all around
Intro Riff
naa, na na, naa, na na x2


F#2               
I'm in trouble, your in trouble,
A2
deep deep trouble, gonna burst that bubble yeah
B2                                     Chorus Break Riff
i'm in trouble, when you see my soul tonight
F#2
I'm in trouble, your in trouble,
A2
deep deep trouble, gonna burst that bubble yeah
B2                                     Main Riff
i'm in trouble, when you see my soul tonight


B1
Oh, when to follow, cuz we can value what we got
Intro Riff
naa, na na, naa, na na x2
B1
Oh, now i want to follow, never seen you such alive
Intro Riff
naa, na na, naa, na na x2


F#2               
I'm in trouble, your in trouble,
A2
deep deep trouble, gonna burst that bubble yeah
B2                                     Chorus Break Riff
i'm in trouble, when you see my soul tonight, Yeah
F#2
I'm in trouble, your in trouble,
A2
deep deep trouble, gonna burst that bubble yeah
B2                                     Main Riff
i'm in trouble, when you see my soul tonight

B1
Oh, now where to run to, he's running everywhere we go
Intro Riff
naa, na na, naa, na na x2
B1
Oh, You're getting pretty watched, but you believe in everyone
Intro Riff
naa, na na, naa, na na x2

F#1                                           Bridge Riff x4
Oh, can you feel it, there's no money in this town, Yeah


During Solo - Bridge Riff x4

Solo...
e|-15--15--15--15--15--15--15--15--15-15-15-15-|
B|-18b-18b-18b-18b-18b-18b-18b-18b-18-18-18-15-|
G|---------------------------------------------|
D|---------------------------------------------|
A|---------------------------------------------| X3
E|---------------------------------------------| 

e|-15~~-------------|
B|-18b~-------------|
G|------------------|
D|------PICK SCRAPE-|
A|------PICK SCRAPE-|
E|------------------|

Main Riff x4

F#2               
I'm in trouble, your in trouble,
A2
deep deep trouble, gonna burst that bubble yeah
B2                                     Chorus Break Riff
i'm in trouble, when you see my soul tonight
F#2
I'm in trouble, your in trouble,
A2
deep deep trouble, gonna burst that bubble yeah
B2                                     Main Riff
i'm in trouble, when you see my soul tonight, tonight
Tap to rate this tab
# A B C D E F G H I J K L M N O P Q R S T U V W X Y Z