Song name
# A B C D E F G H I J K L M N O P Q R S T U V W X Y Z

Stone Temple Pilots - Unglued tab

Artist - Stone Temple Pilots
Song - Unglued
Album - Purple (1994)


standard tuning

 intro
|-----------------|
|-----------------|
|-----------------|x4
|-----------------|
|-----------------|
|-0-0-0-0-0-0-10b-|

 whole band before verse
|-----------------|
|-----------------|
|-----------------|x4
|-----------------|
|-2-2-2-2-2-2-----|
|-0-0-0-0-0-0-10b-|

 verse
|-----------------|
|-----------------|
|-----------------|x3
|-----------------|
|-2-2-2-2-2-------|
|-0-0-0-0-0-------|

|-----------------|
|-----------------|
|-----------------|
|-----------------|
|-2-2-2-2-2-------|
|-0-0-0-0-0-/19\--|

|-----------------|
|-----------------|
|-----------------|x4
|-----------------|
|-2-2-2-2-2-x-x-x-|
|-0-0-0-0-0-x-x-x-|


 chorus

|-0---0-0---0-0-0-|-0---0-0---0-0-0-|
|-0---0-1---1-1-1-|-2---2-1---1-1-1-|
|-1---1-0---0-0-0-|-2---2-0---0-0-0-|
|-2---2-2---2-2-2-|-2---2-2---2-2-2-|
|-2---2-3---3-3-3-|-0---0-3---3-3-3-|
|-0---0-----------|-----------------|
				      
|-0---0-0---0-0-0-|-0---0-0-0-0-0-0-|
|-0---0-1---1-1-1-|-2---2-2-2-2-2-2-|
|-1---1-0---0-0-0-|-2---2-2-2-2-2-2-|
|-2---2-2---2-2-2-|-2---2-2-2-2-2-2-|
|-2---2-3---3-3-3-|-0---0-0-0-0-0-0-|
|-0---0-----------|-----------------|


 post-chorus

|-0---0---0-0-0-0-|---0-0---0-0-0-0-|-0---|
|-3---3---3-3-3-3-|---3-3---3-3-3-0-|-1---|
|-2---2---2-2-2-2-|---2-2---2-2-2-0-|-0---|
|-0---0---0-0-0-0-|---0-0---0-0-0-0-|-2---|
|---------------4-|---4-4---4-4-4-0-|-3---|
|-----------------|-----------------|-----|


 solo 
|--------|--------------------------|----------------------------|
|--------|-15b~~r-15b~~----15b~~----|-15b~~----15b~~----15b~~----|
|---15---|-------------15r~-----15r~|------15r~-----15r~-----15r~|
|--------|--------------------------|----------------------------|
|--------|--------------------------|----------------------------|
|--------|--------------------------|----------------------------|

|----------------------|----------------------|----------------------|
|-15b~~----15b~~-------|-----------14b~-------|-----------15b~~------|
|------15r~-----15r~---|--------13------------|--------13------------|
|-------------------12-|-----12---------12----|-----12----------12---|
|----------------------|----------------------|----------------------|
|----------------------|----------------------|----------------------|

|---------------|-----------------------|---------14b~----|
|---------------|--------------------14-|-----------------|
|---------13-14-|--------------14--13---|-12--------------|
|------12-------|-------14---13--12-----|-----------------|
|---------------|----13----12-----------|-----------------|
|---------------|-12--------------------|-----------------|


b-bend (~half step, ~~full step)
s-slide
x-mute
r-release
Tap to rate this tab
# A B C D E F G H I J K L M N O P Q R S T U V W X Y Z