Song name
# A B C D E F G H I J K L M N O P Q R S T U V W X Y Z

Street Sweeper Social Club - Fight Smash Win tab

FIGHT! SMASH! WIN!
--
Sorry, haven't figured out the solo yet but i'm pretty sure the rest is correct.
--


Dropped D Tuning (DADGBE)


INTRO:

With Phase 90
  
e|-------------------------------------------------|
B|-------------------------------------------------|
G|-------------------------------------------------|
D|-14-14-14-14-14-14-14-14-14-14-14-14-14-14-14-14-| x2
A|-14-14-14-14-14-14-14-14-14-14-14-14-14-14-14-14-|
D|-14-14-14-14-14-14-14-14-14-14-14-14-14-14-14-14-|

e|-------------------------------------------------|
B|-------------------------------------------------|
G|-------------------------------------------------|
D|-12-12-12-12-12-12-12-12-12-12-12-12-12-12-12-12-| x2
A|-12-12-12-12-12-12-12-12-12-12-12-12-12-12-12-12-|
D|-12-12-12-12-12-12-12-12-12-12-12-12-12-12-12-12-|

e|-------------------------------------------------|
B|-------------------------------------------------|
G|-------------------------------------------------|
D|-17-17-17-17-17-17-17-17-17-17-17-17-17-17-17-17-| x2
A|-17-17-17-17-17-17-17-17-17-17-17-17-17-17-17-17-|
D|-17-17-17-17-17-17-17-17-17-17-17-17-17-17-17-17-|

e|-------------------------------------------------|
B|-------------------------------------------------|
G|-------------------------------------------------|
D|-14-14-14-14-14-14-14-14-14-14-14-14-14-14-14-14-| x2
A|-14-14-14-14-14-14-14-14-14-14-14-14-14-14-14-14-|
D|-14-14-14-14-14-14-14-14-14-14-14-14-14-14-14-14-|


MAIN RIFF:

e|-----------------------|-----------------------|
B|-----------------------|-----------------------|
G|-----------------------|-----------------------|
D|-----------------------|-----------------------|
A|-2----5--0--2--5----0--|-2--0--2--5----4--2--0-|
D|-2----5--0--2--5----0--|-2--0--2--5----4--2--0-|

VERSE:

Slightly palm muted all the time

e|-----------------------------|
B|-----------------------------|
G|-----------------------------|
D|-----------------------------| x3
A|-------x-x-x-x----x----x---x-|
D|-0--2--x-x-x-x-2--x-2--x-2---|

e|---------------------------|
B|---------------------------|
G|---------------------------|
D|---------------------------|
A|-------x-x-x-x-------------|
D|-0--2--x-x-x-x-5--4--2--0--|


CHORUS RIFF:

Let's fight, let's smash, let's win!

e|---------------------|-----------------------|
B|---------------------|-----------------------|
G|---------------------|-----------------------|
D|---------------------|-----------------------| x4
A|-0--2------0--2------|-0--2------0--5--4--2--|
D|-0--2------0--2------|-0--2------0--5--4--2--|
Tap to rate this tab
# A B C D E F G H I J K L M N O P Q R S T U V W X Y Z