Song name
# A B C D E F G H I J K L M N O P Q R S T U V W X Y Z

String Cheese Incident - Rhythm Of The Road tab

Help us improve GuitareTab! Take a short survey!
Intro:

e--------------------------8/9---9-----------------------------------|
b--------------------------8/9---9-----------------------------------|
g--------------7---7/8---7---------------- 7--7/11--10--8--10---7----|
d-----------8------------------------------8---------------------8---|
a----7--10--------------------------7--10----------------------------|
e--8--------------------------------8--------------------------------|

e--------------------------------------------------------------------------------|
b--------4---7---6h7--8---4------------4---6/8--6h7--8--4-----4-7---6h7--8--4----|
g---5-----------------------------5---5----------------------------5----------5--|
d--------------------------------------------------------------------------------|
a--------------------------------------------------------------------------------|
e--------------------------------------------------------------------------------|

e-----------------------------------------------------------------------------|
b-----------4h6---7/8--------4---6/7---8/9---10--9--8--8--6--8--6--6-6--------|
g---4h5------------------5----------------------------------------------------|
d-----------------------------------------------------------------------------|
a-----------------------------------------------------------------------------|
e-----------------------------------------------------------------------------|

 Chords:

     C           F7          Am          F             Gm
-----x----------x----------5-----------1------------3-------------------------|
-----5----------4----------5-----------1------------3-------------------------|
-----5----------2----------5-----------2------------3-------------------------|
-----5----------3----------7-----------3------------5-------------------------|
-----x----------x----------7-----------3------------5-------------------------|
-----x----------x----------5-----------1------------3-------------------------|


Here is an alternative way of playing C and F

       (C7)           (F7)
E-------x--------------x---------------------------------------------------------|
B-------8--------------6---------------------------------------------------------|
G-------9--------------8---------------------------------------------------------|
D-------8--------------7---------------------------------------------------------|
A-------x--------------8---------------------------------------------------------|
E-------8--------------x---------------------------------------------------------|

C                             F7
  Driving down the highway miles from home
C                                 F7
  It's been that way since the day we started to roam.
  This is what we wanted, hey look what we've got.
  Got to leave that little town behind and move on.

  Trees line the highway as we roll down the road.
  At the wheel twelve tons of steel can be quite a load.
  In the distance the city lights are starting to glow.
  Sit back and watch them glimmer, they're starting to grow

Then it goes:
e---------------------------------------------------------------|
b------8--7--6--6--7--8--8--7--7--6-----------------------------|
g---------------------------------------------------------------|
d---------------------------------------------------------------|
a---------------------------------------------------------------|
e---------------------------------------------------------------|

There' another little part that is about 3 sec.  Right after this,
but I haven't figured it out yet.
Bridge:
Am                                         F
And the rhythm of the road holds the answer to the questions on our

          Am          F        Gm      Am
minds.
Am
I know that we can keep the faith
F
 and things will all work out in time.

Here's where they get into the jam, and the its just the same C-F7
progression. At the end of the song they go back to the intro, but
at the very end they do this:
                                                   C
e----------------------------------------------------------------|
b------10--9--8--8--6------------------------5-------------------|
g---------------------------5--4--3--3--2-----5------------------|
d------------------------------------------------5---------------|
a----------------------------------------------------------------|
e----------------------------------------------------------------|
Related for Rhythm Of The Road tab