Song name
# A B C D E F G H I J K L M N O P Q R S T U V W X Y Z

String Cheese Incident - Sirens tab

Hey, Sup everyone. We need some more SCI tabs on this site. Anyway, this is one of the 
songs off of "Untying the Not".

This song is in the key of G, but during the chorus' of the song it switches to the key 
C.


Verse:

No guitar, but if you want to follow the bass line


    G     B flat   A    A flat

e --------------------------------------------------|
b --------------------------------------------------|
g --------------------------------------------------|
d --------------------------------------------------|
a --------------------------------------------------|
E ---3------6------5------4-------------------------|

Chorus: (Sort of a Ska Upstroke Type Thing)

     C            G            Am            F

e ----------------3---3--------5---5---------1---1--|
b ---5---5--------3---3--------5---5---------1---1--|
g ---5---5--------4---4--------5---5---------2---2--|
d ---5---5--------5---5--------7---7---------3---3--|
a ---3---3------------------------------------------|
E --------------------------------------------------|


     C            G            Am      F      G

e ----------------3---3------5---5-----1-1-s/-3-3---|
b ---5---5--------3---3------5---5-----1-1-s/-3-3---|
g ---5---5--------4---4------5---5-----2-2-s/-4-4---|
d ---5---5--------5---5------7---7-----3-3-s/-5-5---|
a ---3---3------------------------------------------|
E --------------------------------------------------|


    C            G            Am            F

e ----------------3---3--------5---5---------1---1--|
b ---5---5--------3---3--------5---5---------1---1--|
g ---5---5--------4---4--------5---5---------2---2--|
d ---5---5--------5---5--------7---7---------3---3--|
a ---3---3------------------------------------------|
E --------------------------------------------------|


     C            G            Am      F      G

e ----------------3---3------5---5-----1-1-s/-3-3---|
b ---5---5--------3---3------5---5-----1-1-s/-3-3---|
g ---5---5--------4---4------5---5-----2-2-s/-4-4---|
d ---5---5--------5---5------7---7-----3-3-s/-5-5---|
a ---3---3------------------------------------------|
E --------------------------------------------------|


Song Structure:

Intro (Same as Verse)
Verse
Chorus
Verse
Chorus
Solo/Jam Part (Same as Verse. Done on Madolin on the CD. If you wish to do
a guitar solo over this, use the G minor Pentatonic Scale)
Chorus
Outro (Same as Verse)


If your inerested in the harmonica parts, it uses both the 1st and 2nd position scales 
a Major Diatonic Harp in the key of C


Intro (2nd Position):

overbend 4D, slide down scale
Overbend 2D


Verse (2nd Position):

overbend 2D


Chorus (1st position):

basic line:
after lyrics, slide up to 6D, 6B , 5B

  in 2nd chorus:   8B  to  6D, 6B , 5B

  in 3rd chorus:   8B   7D  7D  7D   7B  (done a couple of times at the end)


After Chorus/ During Jam Part:

Overbend 2D   (crazy overbend, sounds great with hand tremolo)
Tap to rate this tab
# A B C D E F G H I J K L M N O P Q R S T U V W X Y Z