Song name
# A B C D E F G H I J K L M N O P Q R S T U V W X Y Z

String Cheese Incident - Song In My Head tab

Song in My Head
String Cheese Incident
Song in My Head (2014)

Riff 1
E|-------------------------------------|
B|-------------------------------------|
G|-------------------------------------|
D|----------5--------------------------|
A|-------------8--8--7--5--------------|
E|--3--5/7-----------------8--7--6--7--| 

Riff 2
E|-------------3----|
B|-------------3----|
G|-------------4----|
D|----------5--5----|
A|-------------5----|
E|--3--5/7-----3----| 

Riff 3
E|------------------|
B|------------------|
G|------------------|
D|----------5--5~~--|
A|------------------|
E|--3--5/7----------| 

Riff 4
E|-----------------------------------|
B|-----------------------------------|
G|-----------------------------------|
D|-----5--5--------------------------|
A|-----------8--8--7--5--------------|
E|--3--------------------8--7--6--7--|

Riff 5
E|------------------------------------------|
B|------------------------------------------|
G|------------------------------------------|
D|-------------------------------5--7--8~\--|
A|-----------------------5--3/7-------------|
E|--6--5--6--5--6--5--6---------------------|



Intro: G G7 x4

riff 1 x4

(riff 1 x3, riff 2)
I got a song in my head, I got a song in my head 
        C               Bb
I got a song in my head...and it keeps me going.

riff 4
riff 1

(riff 1 x4, riff 3)
I got a song in my head, I got a song in my head 
        C               Bb
I got a song in my head...and it drives me crazy.

riff 4
riff 3
riff 5
riff 4
riff 3

(riff 1 x4)
I got my hands on the wheel, I got my hands on the wheel
E|-------------------------|
B|-------------8--7--6--5--|
G|-------------7--6--5--4--|
D|-----5--3/5--------------|
A|-------------------------|
E|--3----------------------|

         C                Bb
I got my eyes on the road...and it keep on going.

riff 4
riff 3
riff 5
G

F                        Bb
  When you feel like you just can take it,
C                           C F Bb
  walls are tumbling down.
                           F
It's too much and then you just can't make it,
C                      Eb  D
  then that song comes around.

A-|3h4h5~--|      (keyboard is one octave up for each)
It's getting louder
D-|2h3h4~--|
It's getting louder
G-|0h1h2~--|
It's getting louder
B-|1h2h3~--|

Guitar Solo 1
E|----------------------------------------------------|
B|---------------------------3-----------3------------|
G|--3~-------------------3~-----------5-----3---------|
D|------5p3h5~--3--5--3---------3h5~-----------5--5~--|
A|----------------------------------------------------|
E|----------------------------------------------------|

E|------------------------------------------------------------|
B|---------------------------------------------------11--13~--|
G|----------------------------------------9--10--12-----------|
D|-----3--4--5--4--5--7--5--7--8--10--12----------------------|
A|--5---------------------------------------------------------|
E|------------------------------------------------------------|

E|----------------------------------------------------------------------------|
B|--11~--~--10--10--10--------------------------------------------------------|
G|--10~-----------------12--10--12--/12--12--10-------------------------------|
D|-----------------------------------------------12--12--10--12---------------|
A|---------------------------------------------------------------13--10--10~--|
E|----------------------------------------------------------------------------|

E|--------------------------------|-----10--12--10--12--13--13--13--13r12~--|
B|-------------------------6--8~--|/12--------------------------------------|
G|-------7--7--9--7--9--9---------|-----------------------------------------|
D|--7/9---------------------------|-----------------------------------------|
A|--------------------------------|-----------------------------------------|
E|--------------------------------|-----------------------------------------|

E|--12b13r12b13r12--10--12----------|--------12b13--10--12-----------------|
B|--------------------------11b12~--|----11-----------------11-------------|
G|----------------------------------|12-------------------------12--10h12--|
D|----------------------------------|--------------------------------------|
A|----------------------------------|--------------------------------------|
E|----------------------------------|--------------------------------------|

E|---------------------------------------------10------10--12--13--14--15--|
B|-------------------------10--11--10--11--13------13----------------------|
G|--9--10--11--12--11--12--------------------------------------------------|
D|-------------------------------------------------------------------------|
A|-------------------------------------------------------------------------|
E|-------------------------------------------------------------------------|

E|--12-----------------------10--13--15--14--13--11--11--11--10----------|
B|------13p11h13---------11--------------------------------------13--11--|
G|----------------9--12--------------------------------------------------|
D|-----------------------------------------------------------------------|
A|-----------------------------------------------------------------------|
E|-----------------------------------------------------------------------|

E|--------------------------------------------|
B|--11--11--10------10h11p10------------------|
G|--------------12------------10------10/12`--|
D|--------------------------------12----------|
A|--------------------------------------------|
E|--------------------------------------------|

E|--15--15--13--13--12--12--10--12-------------------------------------|
B|----------------------------------11b12------------------------------|
G|-----------------------------------------12--10--10------------------|
D|-----------------------------------------------------12--10----------|
A|-------------------------------------------------------------13--10--|
E|---------------------------------------------------------------------|

[Bass solo] (no chords)

E|--2h3--3--3--|- x8

riff 1 x15
I got a song in my head x4
I got a song in my head...going round and round x6
                                                     G
I got a song in my head...going round and round and round and round...round

F                        Bb
  When you feel like you just can take it,
C                           C F Bb
  walls are tumbling down.
                           F
It's too much and then you just can't make it,
C                      Eb  D
  then that song comes around.

A-|3h4h5~--|      (keyboard is one octave up for each)
It's getting louder
D-|2h3h4~--|
It's getting louder
G-|0h1h2~--|
It's getting louder
B-|1h2h3~--|


E|------------------------------------|
B|------------------------------------|
G|------------------------------------|
D|---------------------9--10--11--12--|
A|----------9--10--12-----------------|
E|--10--12----------------------------|

E|--------------------------------------------------------7------|
B|--7--8p7------------------------7--8p7---------------------10--|
G|----------9--7--9~--9--7----------------9--7--9~--9--7---------|
D|--------------------------9--7---------------------------------|
A|---------------------------------------------------------------|
E|---------------------------------------------------------------|

E|---------------------------------------------------------------|
B|--7--8p7------------------------7--8p7-------------------------|
G|----------9--7--9~--9--7----------------9--7--9~--9--7---------|
D|--------------------------9--7--------------------------7/12---|
A|---------------------------------------------------------------|
E|---------------------------------------------------------------|

[Organ Solo] (D C G)

E|------------------------------------|
B|------------------------------------|
G|------------------------------------|
D|---------------------9--10--11--12--|
A|----------9--10--12-----------------|
E|--10--12----------------------------|

E|--------------------------------------------------------7------|
B|--7--8p7------------------------7--8p7---------------------10--|
G|----------9--7--9~--9--7----------------9--7--9~--9--7---------|
D|--------------------------9--7---------------------------------|
A|---------------------------------------------------------------|
E|---------------------------------------------------------------|

E|---------------------------------------------------------------|
B|--7--8p7------------------------7--8p7-------------------------|
G|----------9--7--9~--9--7----------------9--7--9~--9--7---------|
D|--------------------------9--7---------------------------------|
A|---------------------------------------------------------------|
E|---------------------------------------------------------------|


A-|3h4h5~--|      (keyboard is one octave up for each)
It's getting louder
D-|2h3h4~--|
It's getting louder
G-|0h1h2~--|
It's getting louder
B-|1h2h3~--|

G
Tap to rate this tab
 
# A B C D E F G H I J K L M N O P Q R S T U V W X Y Z