Song name
# A B C D E F G H I J K L M N O P Q R S T U V W X Y Z

Stuck Mojo - Animal tab

-------------------------------------------------------------------------------
			     Animal - Stuck Mojo
-------------------------------------------------------------------------------

Tuning: Drop D

Intro/Pre chorus
e------------------------------------------------------|
B------------------------------------------------------|
G------------------------------------------------------|
D-0-0-0-0--3-3-3-3--6-6-6-6--1-1-1-1--0-0-0-0----------| x4
A-0-0-0-0--3-3-3-3--6-6-6-6--1-1-1-1--0-0-0-0----------|
D-0-0-0-0--3-3-3-3--6-6-6-6--1-1-1-1--0-0-0-0 ---------|

Verse
e----------------|                e-------------------|
B----------------|                B-------------------|
G--------7-------|                G--------5----------|
D-0-0-0--7--0-0-0|   x4           D-0-0-0--5--0-0-0---|  x4
A-0-0-0--5--0-0-0|                A-0-0-0--3--0-0-0---|
D-0-0-0-----0-0-0|                D-0-0-0-----0-0-0---|
pm.....     .....	              pm.....     .....

Chorus
e---------------|
B---------------|
G---------------|
D-0-0--1-1--0-0-|
A-0-0--1-1--0-0-|
D-0-0--1-1--0-0-|

Bridge
e---------------------------|
B---------------------------|
G---------------------------|
D-----------------2-2-2-2-2-|
A-----------------2-2-2-2-2-|
D-3-0-3-0-3-0-3-2-2-2-2-2-2-|
                pm.........
Tap to rate this tab
 
# A B C D E F G H I J K L M N O P Q R S T U V W X Y Z