Song name
# A B C D E F G H I J K L M N O P Q R S T U V W X Y Z

Stuck Mojo - Trick tab

Suck Mojo - Trick
Tuning: Drop C

Intro
 pm--------------------------------------------|
D-------------------------------------------------------------|
A-------------------------------------------------------------|
F-------------------------------------------------------------|
C-6-3-0-3-6-0-6-3-0-3-4-0-6-3-0-3-6-0-6-3-0-3-4---------------|
G-6-3-0-3-6-0-6-3-0-3-4-0-6-3-0-3-6-0-6-3-0-3-4---------------|
C-6-3-0-3-6-0-6-3-0-3-4-0-6-3-0-3-6-0-6-3-0-3-4--2/3-3--2/3-3-|

 pm--------------------------------------------|
D-------------------------------------------------------------|
A-------------------------------------------------------------|
F-------------------------------------------------------------|
C-6-3-0-3-6-0-6-3-0-3-4-0-6-3-0-3-6-0-6-3-0-3-4---------------|
G-6-3-0-3-6-0-6-3-0-3-4-0-6-3-0-3-6-0-6-3-0-3-4---------------|
C-6-3-0-3-6-0-6-3-0-3-4-0-6-3-0-3-6-0-6-3-0-3-4--4-1-1--4-1-1-|


 pm--------------------------------------------|
D-------------------------------------------------------------|
A-------------------------------------------------------------|
F-------------------------------------------------------------|
C-6-3-0-3-6-0-6-3-0-3-4-0-6-3-0-3-6-0-6-3-0-3-4---------------|
G-6-3-0-3-6-0-6-3-0-3-4-0-6-3-0-3-6-0-6-3-0-3-4---------------|
C-6-3-0-3-6-0-6-3-0-3-4-0-6-3-0-3-6-0-6-3-0-3-4--2/3-3--2/3-3-|


 pm--------------------------------------------|
D-----------------------------------------------|
A-----------------------------------------------|
F-----------------------------------------------|
C-6-3-0-3-6-0-6-3-0-3-4-0-6-3-0-3-6-0-6-3-0-3-4-|
G-6-3-0-3-6-0-6-3-0-3-4-0-6-3-0-3-6-0-6-3-0-3-4-|
C-6-3-0-3-6-0-6-3-0-3-4-0-6-3-0-3-6-0-6-3-0-3-4-|

Verse 1  x4
D--------------------------|
A--------------------------|
F--------------------------|
C--------------------------|
G-5-3---7--3/5--3/5--3/5-5-|
C-----5----0----0----0-----|

Verse 2 x4
D----------------------|
A----------------------|
F----------------------|
C----------------------|
G-5-3---7--3/5-3-------|
C-----5----0---3---0-3-|

Prechorus
D----------------------------------------------------------|
A----------------------------------------------------------|
F----------------------------------------------------------|
C-9--9-9-0----2---9--9-9-0----3---9--9-9-0----2---9--9-9-X-|
G-9--9-9-0----2---9--9-9-0----3---9--9-9-0----2---9--9-9-X-|
C-9--9-9-0----2---9--9-9-0----3---9--9-9-0----2---9--9-9-X-|


D---------------------------------------|
A---------------------------------------|
F-4-5-----------------------------------|
C-----------X-X--X-X-X--X-X-X--X-X-X--X-|
G-2-3------X-X--X-X-X--X-X-X---X-X-X--X-|
C-----------X-X--X-X-X--X-X-X--X-X-X--X-|

Chorus
D-------------------------------------------------------------------------------|
A-------------------------------------------------------------------------------|
F-------------------------------------------------------------------------------|
C-0--3--5--3-0-5-3-0--3--5-3-0-5-3-0-5-3-0-0--3--5-3-0-5-3-0--3--5-3-0-5-3-0----|
G-0--3--5--3-0-5-3-0--3--5-3-0-5-3-0-5-3-0-0--3--5-3-0-5-3-0--3--5-3-0-5-3-0----|
C-0--3--5--3-0-5-3-0--3--5-3-0-5-3-0-5-3-0-0--3--5-3-0-5-3-0--3--5-3-0-5-3-0-3~-|

D----------------------------------------------------------------|
A----------------------------------------------------------------|
F-----------------------------------------------------------3----|
C-0--3--5--3-0-5-3-0--3--5-3-0-5-3-0-5-3-0-0--3--3--5--1----3--3-|
G-0--3--5--3-0-5-3-0--3--5-3-0-5-3-0-5-3-0-0--3--3--5--1----1--3-|
C-0--3--5--3-0-5-3-0--3--5-3-0-5-3-0-5-3-0-0--3--3--5--1-------3-|

Interlude
       pm    pm---|                pm    pm---|
D------------------------------------------------------------|
A----------------------------------------------------7-8-----|
F------------------------------------------------7-8-0-0--8--|
C------------------------3-----------------------0-0-0----0--|
G--------5/3-----------3---5----------5/3--------------------|
C-0----0-----5-4-3--0---------0----0------5-4-3--------------|
      pm    pm---|                 pm    pm---|
D-----------------------------------------------------------|
A------------------------------------------------11-8--10-7-|
F------------------------------------------------0--0--0--0-|
C------------------------3----------------------------------|
G--------5/3-----------3---5----------5/3-------------------|
C-0----0-----5-4-3--0---------0----0------5-4-3-------------|

Solo
  w/wah
D------------------------------------------------------------------|
A-7----7-8-10-11--10-8-7-8--7-8-7----8-10-11-------13~-13~-13~-13~-|
F-0----0-0-0--0---0--0-0-0--0-0-0----0-0--0--------13~-13~-13~-13~-|
C--------------------------------------------/-/-/-13~-13~-13~-13~-|
G--------------------------------------------/-/-/-----------------|
C--------------------------------------------/-/-/-----------------|

 pm-------|    pm-------|
D------------------------------------------------
A----------------------------15---17---18---20---
F-------10-----------10------17b--19b--20b--22b--
C----10----12-----10----12~----------------------
G-12-----------12--------------------------------
C------------------------------------------------

      pm------|   pm------|   pm------|
D------------------------------------------|
A------------------------------------------|
F--------------10----------10----------10--|
C-12--10/11/12----10/11/12----10/11/12-----|
G------------------------------------------|
C------------------------------------------|
Tap to rate this tab
 
# A B C D E F G H I J K L M N O P Q R S T U V W X Y Z