Song name
# A B C D E F G H I J K L M N O P Q R S T U V W X Y Z

Suicide Silence - You Only Live Once tab

Song: You Only Live Once
Artist: Sucide Silence
Album: The Black Crown
Year: 2011
Tunning: drop a
tab by Unleashed0993
--------------------
*       plam muted |
                   |
\\\\\\  let ring   |
                   |
/       slide      |
--------------------

|------------------------------------------------------|
|------------------------------------------------------|
|------------------------------------------------------|
|------------10---9--10--------------------------------|
|-7-9-7-10-7----7---7--7-10-7-7-7-7-7-7-7-10-7-10-7-10-|
|------------------------------------------------------|
  * * * * * * * * * * * * * * * * * * * * * * * * * *

|------------------------------------------------------|
|------------------------------------------------------|
|------------------------------------------------------|
|------------9---10---9--------------------------------|
|-7-9-7-10-7---7----7--7-10-7-7-7-7-7-7-7-10-7-10-7-10-|
|------------------------------------------------------|
  * * * * * * * * * * * * * * * * * * * * * * * * * *

second guitar goes... x2

|-----------------------------------------------------|
|-----------------------------------------------------|
|------------- ---------------------------------------|
|0-0----0-0-0---0-0-0---0-0-0-0-0-0-0-0---------------|
|0-0----0-0-0---0-0-0---0-0-0-0-0-0-0-0---------------|
|0-0----0-0-0---0-0-0---0-0-0-0-0-0-0-0---------------|

|------------------------------------------------------|
|------------------------------------------------------|
|------------------------------------------------------|
|------------10---9--10--------------------------------|
|-7-9-7-10-7----7---7--7-10-7-7-7-7-7-7-7-10-7-10-7-10-|
|------------------------------------------------------|
  * * * * * * * * * * * * * * * * * * * * * * * * * *

|-----------------------------------------------------|
|-----------------------------------------------------|
|-----------------------------------------------------|
|-----------------------------------------------------|
|-----------------------------------------------------|
|-1\\\\\\-0-0-1\\\\\\-0-0-1\\\\\\-0-0-1-0-1-1-0-------|
          * *         * *         * * * * * * *

|-----------------------------------------------------------|
|-----------------------------------------------------------|
|-----------------------------------------------------------|
|-9/8-12/9-9/8-----------------9/8-12/9-9/8-----------------|
|-7/6-10/7-7/6-5-9-5-9-5-9-5-9-7/6-10/7-7/6-----------------|
|-------------------------------------------0-1-0-1-0-1-0-1-|

|-------------------------------------------------------------|
|-------------------------------------------------------------|
|-------------------------------------------------------------|
|-9/8-12/9-9/8-----------------9/8-12/9-9/8-0-1-2-2-2-1-2-2-2-|
|-7/6-10/7-7/6-5-9-5-9-5-9-5-9-7/6-10/7-7/6-0-1-2-2-2-1-2-2-2-|
|-------------------------------------------0-1-2-2-2-1-2-2-2-|


|-----------------------------------------------------|
|-----------------------------------------------------|
|-----------------------------------------------------|
|-----------------------------------------------------|
|-----------------------------------------------------|
|-1\\\\\\-0-0-1\\\\\\-0-0-1\\\\\\-0-0-1-0-1-1-0-------| (x4)

|------------------------------------------------------|
|------------------------------------------------------|
|------------------------------------------------------|
|------------10---9--10--------------------------------|
|-7-9-7-10-7----7---7--7-10-7-7-7-7-7-7-7-10-7-10-7-10-|
|------------------------------------------------------|
  * * * * * * * * * * * * * * * * * * * * * * * * * *

|------------------------------------------------------|
|------------------------------------------------------|
|------------------------------------------------------|
|------------9---10---9--------------------------------|
|-7-9-7-10-7---7----7--7-10-7-7-7-7-7-7-7-10-7-10-7-10-|
|------------------------------------------------------|
  * * * * * * * * * * * * * * * * * * * * * * * * * *

|-----------------------------------------------------------|
|-----------------------------------------------------------|
|-----------------------------------------------------------|
|-9/8-12/9-9/8-----------------9/8-12/9-9/8-----------------|
|-7/6-10/7-7/6-5-9-5-9-5-9-5-9-7/6-10/7-7/6-----------------|
|-------------------------------------------0-1-0-1-0-1-0-1-|

|-------------------------------------------------------------|
|-------------------------------------------------------------|
|-------------------------------------------------------------|
|-9/8-12/9-9/8-----------------9/8-12/9-9/8-0-1-2-2-2-1-2-2-2-|
|-7/6-10/7-7/6-5-9-5-9-5-9-5-9-7/6-10/7-7/6-0-1-2-2-2-1-2-2-2-|
|-------------------------------------------0-1-2-2-2-1-2-2-2-|

|-------------------|
|-------------------|
|-------------------|
|-0-1-2-2-2-1-2-2---|2(x8)
|-0-1-2-2-2-1-2-2-2-|
|-0-1-2-2-2-1-2-2-2-|

Solo part 2nd guitar goes

|-----------------------------------------------------------|
|-----------------------------------------------------------|
|-----------------------------------------------------------|
|-9/8-12/9-9/8-----------------9/8-12/9-9/8-----------------|
|-7/6-10/7-7/6-5-9-5-9-5-9-5-9-7/6-10/7-7/6-----------------|
|-------------------------------------------0-1-0-1-0-1-0-1-|

|-------------------------------------------------------------|
|-------------------------------------------------------------|
|-------------------------------------------------------------|
|-9/8-12/9-9/8-----------------9/8-12/9-9/8-0-1-2-2-2-1-2-2-2-|
|-7/6-10/7-7/6-5-9-5-9-5-9-5-9-7/6-10/7-7/6-0-1-2-2-2-1-2-2-2-|
|-------------------------------------------0-1-2-2-2-1-2-2-2-|

i know it isn't 100% accurate but seems to work :)
the rest is easy to get ;) thanks
Tap to rate this tab
# A B C D E F G H I J K L M N O P Q R S T U V W X Y Z