Song name
# A B C D E F G H I J K L M N O P Q R S T U V W X Y Z

Sum 41 - In Too Deep tab

I would suggest using a pick
“In too deep”, by Sum 41  			B=Bend	M=Mute	S=Slide up	V=Vibrate

			 Repeat 2 more times
E---------------5------------------------------------------5--------------------------|
B---------5------------------------------------------5--------------------------------|
G--4444---4-----4---4444---2-1-2-4-----4444----4-----4---4444---2-1-------------------|
D--------------------------------------------------------------------------------4-2--|
A-------------------------------------------------------------------------------------|
D-------------------------------------------------------------------------------------|

E--4--44----5--55----4--44----55555555---------|
B--5--55----5--55----5--55----55555555---------|
G--4--44----6--66----4--44----66666666---------|
D----------------------------------------------|
A----------------------------------------------|
D----------------------------------------------|

E-----------------------------------------------------------------------------------|
B-----------------------------------------------------------------------------------|
G--------S----------S---------S----------S---------S---------S----------S-----------|
D---222---77-7-7---22-2-2---77-7-7---22-2-2---77-7-7---22-2-2---77-7----------------|
A---222---77-7-7---22-2-2---77-7-7---22-2-2---77-7-7---22-2-2---77-7----------------|
D---222---77-7-7---22-2-2---77-7-7---22-2-2---77-7-7---22-2-2---77-7----------------|

E---------------------------------------------------------------------------------------------------|
B---------------------------------------------------------------------------------------------------|
G------------S---------S---------S----------S---------S----------S---------------S---------------S--|
D---22-2-2---77-7-7---22-2-2---77-7-7---22-2-2---77-7-7---1414-14-14---1212-12-12---77-7-7---7------|
A---22-2-2---77-7-7---22-2-2---77-7-7---22-2-2---77-7-7---1414-14-14---1212-12-12---77-7-7---7------|
D---22-2-2---77-7-7---22-2-2---77-7-7---22-2-2---77-7-7---1414-14-14---1212-12-12---77-7-7---7------|

E----------------------------------------------------------------------------------------|
B----------------------------------------------------------------------------------------|
G------S------------S--------S------------S--------S------------S---------S-----------S--|
D---22-14--77-7-6-7----22-14--77-7-6-7----22-18--77-7-6-7----22-18-77-6-4-6--------------|
A---22-14--77-7-6-7----22-14--77-7-6-7----22-18--77-7-6-7----22-18-77-6-4-6--------------|
D---22-14--77-7-6-7----22-14--77-7-6-7----22-18--77-7-6-7----22-18-77-6-4-6--------------|

E----------------------------------------------------------------------------|
B----------------------------------------------------------------------------|
G----------------------------------------------------------------------------|
D-22----6--77----7--22----6--77--67--6-22----6--77----7--22----6--77--67--6--|
A-22----6--77----7--22----6--77--67--6-22----6--77----7--22----6--77--67--6--|
D-22----6--77----7--22----6--77--67--6-22----6--77----7--22----6--77--67--6--|

E-----------------------------------------------------------------|
B-----------------------------------------------------------------|
G----M------------M---------------M-------------------------------|M
D-22222222-77777777-1414141414141414-77777777---------------------|
A-22222222-77777777-1414141414141414-77777777---------------------|
D-22222222-77777777-1414141414141414-77777777---------------------|

E-----------------------------------------------------------------------------------|
B-----------------------------------------------------------------------------------|
G--------S----------S---------S----------S--------S----------S---------S------------|
D---222---77-7-7---22-2-2---77-7-7---22-2-2---77-7-7---22-2-2---77-7----------------|
A---222---77-7-7---22-2-2---77-7-7---22-2-2---77-7-7---22-2-2---77-7----------------|
D---222---77-7-7---22-2-2---77-7-7---22-2-2---77-7-7---22-2-2---77-7----------------|

E-------------------------------------------------------------------|
B-------------------------------------------------------------------|
G------------S----------S---------S---------S---------S-------------|
D---22-2-2---77-7-7---22-2-2---77-7-7---22-2-2---77-7-7-------------|
A---22-2-2---77-7-7---22-2-2---77-7-7---22-2-2---77-7-7-------------|
D---22-2-2---77-7-7---22-2-2---77-7-7---22-2-2---77-7-7-------------|

E------------------------------------------------------------------------------------|
B------------------------------------------------------------------------------------|
G------------------S---------------S--------------S---------------S---------------S--|
D---1414-14-14---1212-12-12---77-7-7---7---1414-14-14---1212-12-12---77-7-7---7------|
A---1414-14-14---1212-12-12---77-7-7---7---1414-14-14---1212-12-12---77-7-7---7------|
D---1414-14-14---1212-12-12---77-7-7---7---1414-14-14---1212-12-12---77-7-7---7------|

					  Solo
E----------------------------------------------T---------T--------T--------T----------------|B
B----------------------------------------------10--95--10--95--12--95—12--95---7-9-7-9--10--|
G----------B----------B---------B-----------------------------------------------------------|
D----------2----------2----------2----------------------------------------------------------|
A-------------------------------------------------------------------------------------------|
D---2222-----2222-----2222------2-----------------------------------------------------------|

E---------------------------------------T---------T--------T--------T----------|B
B--9--10--12--10--9--7--9--10-----10--95--10--95--12--95--12-95---7-9-7-9--10--|
G------------------------------------------------------------------------------|
D------------------------------------------------------------------------------|
A------------------------------------------------------------------------------|
D------------------------------------------------------------------------------|
				     V	    Hold for 1 time around of next line
E-----------------------------12-14-12--|
B--9--10--12--10--9--7------------------|
G---------------------------------------|
D---------------------------------------|
A---------------------------------------|
D---------------------------------------|

E--------------------------------------------------------------------------------------------------------------------------|
B--------------------------------------------------------------------------------------------------------------------------|
G-----------------------------------------------------------------------------------------------------------------------M--|
D---22---66---77---99---22---66---77---99---22---66---77---99---22---66---77---99---22---66---7---77777777-----------------|
A---22---66---77---99---22---66---77---99---22---66---77---99---22---66---77---99---22---66---7---77777777-----------------|
D---22---66---77---99---22---66---77---99---22---66---77---99---22---66---77---99---22---66---7---77777777-----------------|

E--------------------------------------------------------------------------------------|
B--------------------------------------------------------------------------------------|
G------S------------S-------S------------S-------S------------S-------S-------------S--|
D---22-14--77-7-6-7---22-14--77-7-6-7---22-14--77-7-6-7---22-14--77-6-4-6--------------|
A---22-14--77-7-6-7---22-14--77-7-6-7---22-14--77-7-6-7---22-14--77-6-4-6--------------|
D---22-14--77-7-6-7---22-14--77-7-6-7---22-14--77-7-6-7---22-14--77-6-4-6--------------|

E-----------------------------------------------------------------------------------------|
B-----------------------------------------------------------------------------------------|
G------S------------S-------S------------S-------S------------S--------------S---------S--|
D---22-18--77-7-6-7---22-18--77-7-6-7---22-18--77-7-6-7---141414--121212--777-7-----------|
A---22-18--77-7-6-7---22-18--77-7-6-7---22-18--77-7-6-7---141414--121212--777-7-----------|
D---22-18--77-7-6-7---22-18--77-7-6-7---22-18--77-7-6-7---141414--121212--777-7-----------|

E---------------------------------------------------------------------------------------------------------------------|
B---------------------------------------------------------------------------------------------------------------------|
G-----------S----------S-----S-----S----------S---------S--------S---------S----------S--------S----------S--------S--|
D--141414--121212--777--999---141414--121212--777-7---141414--121212--777-7---141414--121212--777-7-------------------|
A--141414--121212--777--999---141414--121212--777-7---141414--121212--777-7---141414--121212--777-7-------------------|
D--141414--121212--777--999---141414--121212--777-7---141414--121212--777-7---141414--121212--777-7-------------------|
					This starts when singing stops
E----------------------------------4--5--4--5--7--5--4--5--4--5--4--5--4-----------------|
B-------------------------------------------------------------------------------7--5--7--|
G-S---------S---------S------------------------------------------------------------------|
D--141414--121212--777-7-----------------------------------------------------------------|
A--141414--121212--777-7-----------------------------------------------------------------|
D--141414--121212--777-7-----------------------------------------------------------------|

E---4--5--4--5--7--5--4--5--4--5--4--5--4-------------4--5--4--5--7--5--4--5--4--5--4--5--4----------------------|
B------------------------------------------------7--5--7------------------------------------------------7--5--7--|
G----------------------------------------------------------------------------------------------------------------|
D----------------------------------------------------------------------------------------------------------------|
A----------------------------------------------------------------------------------------------------------------|
D----------------------------------------------------------------------------------------------------------------|

E---4--5--4--5--7--5--4--5--4--5--4--5--4-------------4--5--4--5--7--5--4--5--4--5--4--5--4----------------------|
B------------------------------------------------7--5--7------------------------------------------------7--5--7--|
G----------------------------------------------------------------------------------------------------------------|
D----------------------------------------------------------------------------------------------------------------|
A----------------------------------------------------------------------------------------------------------------|
D----------------------------------------------------------------------------------------------------------------|

That’s the whole song! Hope this works for you. It’s my first tab ever! Good Luck!
Tap to rate this tab
# A B C D E F G H I J K L M N O P Q R S T U V W X Y Z