Song name
# A B C D E F G H I J K L M N O P Q R S T U V W X Y Z

Switchfoot - Stars chords

Highlighted       Show chord diagrams
-----------------------------------------------------------------------------
                                STARS                         SWITCHFOOT     
-----------------------------------------------------------------------------

Tabbed by:hurricaneherman
Tuning:Intro is in drop D tuning, but the rest of the song is standard.

*Chords listed at end
 N.C = no chords

~INTRO~

If you don't want to detune, you can just play the D chord through the
entire intro.

 |RIFF 1 
e|----------------------------------------------------------------|
B|----------------------------------------------------------------|
G|------6-7-----11------9-----131614----6-7-----11------9---9-9-9-|
D|------x-x-----x-------x-----x-x-x-----x-x-----x-------x---x-x-x-|X[4]
A|0-0-0-4-5-0-0-9-0-0-0-7-0-0-1114120-0-4-5-0-0-9-0-0-0-7-0-7-7-7-|
D|0-0-0-----0-0---0-0-0---0-0-------0-0-----0-0---0-0-0---0-------|
 
 |RIFF 2
e|--------------------------------|-------------------------------|
B|--------------------------------|-------------------------------|
G|--------------------------------|-------------------------------|
D|--------------------------------|-------------------------------|X[2]
A|0-2-0-4-5-0---9-0-4-5-7-0-2-4-5-|0-2-0-4-5-0---9-0-4-5-7---7-7-7|
D|0-2-0-----0-7---0-4-5---0-2-----|0-2-0-----0-7---0-4-5----------|

~VERSE~

D                                 G              D
Maybe I've been the problem maybe I'm the one to blame
                C               G                A7sus             A7
But even when I turn it off and blame myself the outcome feels the same
                         D                             G                 D
I've been thinking maybe I've been partly cloudy maybe I'm the chance of rain
              C            G            A7sus                 A7
and maybe I'm overcast and maybe all my lucks washed down the drain

~PRE-CHORUS~

                         G        Asus2             Bsus2      Csus2
I've been thinking 'bout everyone everyone you look so lonely

~CHORUS~

                       D                        G
But when I look at the stars when I look at the stars
                   C   G                    D
When I look at the stars I see someone else
                             Em  A7sus
When I look at the stars the stars
              
I feel like myself

~INTERLUDE~ Play second half of Riff 2.

~VERSE~ (Chords are the same as first verse)

Stars looking at a planet watching entropy and pain
And maybe start to wonder how the chaos in our lives could pass as sane
I've been thinking 'bout the meaning of Resistance of a hope beyond my own
And suddenly the infinite and penitent begin to look like home
I've been thinking 'bout everyone everyone you look so empty

~REPEAT CHORUS~

~REPEAT INTERLUDE~

~BRIDGE~

G       F#m   A  (Play second half of riff 2)
Stars 
G       F#m   A
Stars

~PRE-CHORUS~

G        Asus2            F#m        G
Everyone everyone we feel so lonely
              Asus2               Bsus2   Csus2
Everyone yeah everyone we feel so empty  

~OUTRO-CHORUS~

N.C                                             
When I look at the stars when I look at the stars
                  Csus2 G
When I look at the stars I feel like myself (play second half of riff 2)
                   D         Em  A7sus
When I look at the stars the stars
      N.C
I see someone

~OUTRO~

play riff 2 twice.

*Chords used
       D     G     C   A7sus   A7  Asus2 Bsus2 Csus2   Em   F#m    A
e|-----2-----3-----0-----3-----0-----0-----2-----3-----0-----2-----0-----|
B|-----3-----0-----1-----3-----2-----0-----2-----3-----0-----2-----2-----|
G|-----2-----0-----0-----2-----0-----2-----4-----5-----0-----2-----2-----|
D|-----0-----0-----2-----2-----2-----2-----4-----5-----2-----4-----2-----|
A|-----x-----2-----3-----0-----0-----0-----2-----3-----2-----4-----0-----|
E|-----x-----3-----0-----x-----x-----x-----x-----x-----0-----2-----x-----|

This tab should be 100% correct, but if you find anything wrong, you can
leave a comment, so I can fix it. Stars is one of my favorite songs of
Switchfoot's, and I hope you enjoy my interpretation of this awesome song.
============================================================================
Tap to rate this tab
 
# A B C D E F G H I J K L M N O P Q R S T U V W X Y Z