Song name
# A B C D E F G H I J K L M N O P Q R S T U V W X Y Z

System Of A Down - Toxicity tab

ntro:
1:-------------------------------------|--------------------------------------|
2:-------------------------------------|--------------------------------------|
3:----14----14----14----14----14----14-|----17----17----17----17----17----17--|
4:-12----12----12----12----12----12----|-15----15----15----15----15----15-----|
5:-------------------------------------|--------------------------------------|
6:-------------------------------------|--------------------------------------|

1:-------------------|---------|--------|-------------------|-------------------|
2:-------------------|---------|--------|-------------------|-------------------|
3:----14----14----14-|15----15-|14---14-|----17----19----19-|17----17-15----15--|
4:-12----12----12----|---12----|---12---|-15----15----15----|---15-------15-----|
5:-------------------|---------|--------|-------------------|-------------------|
6:-------------------|---------|--------|-------------------|-------------------|

Chorus:
1:----------------------------------------|----------------------------------------|
2:----------------------------------------|----------------------------------------|
3:----------------------------------------|----------------------------------------|
4:-0----3-2-0-2-0----8---8-8-8---7--7-7-0-|-0----3-2-0-2-0----8---8-8-8---7--7-7-0-|
5:-0----3-2-0-2-0----8---8-8-8---7--7-7-0-|-0----3-2-0-2-0----8---8-8-8---7--7-7-0-|
6:-0----3-2-0-2-0----8---8-8-8---7--7-7-0-|-0----3-2-0-2-0----8---8-8-8---7--7-7-0-|

1:----------------------|---------------------|
2:----------------------|---------------------|
3:----------------------|---------------------|
4:--3-2-0-2-0--3--2--0--|-3-2-0-2-0--3--2--0--|
5:--3-2-0-2-0--3--2--0--|-3-2-0-2-0--3--2--0--|
6:--3-2-0-2-0--3--2--0--|-3-2-0-2-0--3--2--0--|

1:-----------------------|----------------------------------------|
2:-----------------------|----------------------------------------|
3:-----------------------|----------------------------------------|
4:--8---8-8-8---7--7-7-0-|-0----3-2-0-2-0----8---8-8-8---7--7-7-0-|
5:--8---8-8-8---7--7-7-0-|-0----3-2-0-2-0----8---8-8-8---7--7-7-0-|
6:--8---8-8-8---7--7-7-0-|-0----3-2-0-2-0----8---8-8-8---7--7-7-0-|


Verse:
1:-------------------------------------|----------|---------|---------|-----------|
2:-------------------------------------|----------|17-------|18-------|-17--------|
3:----14----14----14----14----14----14-|----17----|---17----|---17----|----17-----|
4:-12----12----12----12----12----12----|-15----15-|------15-|------15-|-------15--|
5:-------------------------------------|----------|---------|---------|-----------|
6:-------------------------------------|----------|---------|---------|-----------|

1:-------------------|---------|--------|----------|---------|---------|----------|
2:-------------------|---------|--------|----------|---------|---------|----------|
3:----14----14----14-|15----15-|14---14-|----17----|19----19-|17----17-|15----15--|
4:-12----12----12----|---12----|---12---|-15----15-|---15----|---15----|---15-----|
5:-------------------|---------|--------|----------|---------|---------|----------|
6:-------------------|---------|--------|----------|---------|---------|----------|



Bridge(All Riffs 4 times played, that's the whole bridge):


RiffA:
1:---------------------
2:---------------------
3:---------------------
4:-0-0-0-0-0-0-3--0-2--
5:---------------------
6:---------------------

RiffB:
-------------------
-------------------
-------------------
-3--0--0--2--0--0--
-3--0--0--2--0--0--
-3--0--0--2--0--0--

RiffC:
----------------------
----------------------
----------------------
-0--0-0-0-0--3-3-0----
-0--0-0-0-0--3-3-0----
-0--0-0-0-0--3-3-0-2--

RiffD:
--------------------------
--------------------------
--------------------------
-3-0-0-0-0-0-2-0-0-0-0-0--
-3-0-0-0-0-0-2-0-0-0-0-0--
-3-0-0-0-0-0-2-0-0-0-0-0--


Chorus:
1:----------------------------------------|----------------------------------------|
2:----------------------------------------|----------------------------------------|
3:----------------------------------------|----------------------------------------|
4:-0----3-2-0-2-0----8---8-8-8---7--7-7-0-|-0----3-2-0-2-0----8---8-8-8---7--7-7-0-|
5:-0----3-2-0-2-0----8---8-8-8---7--7-7-0-|-0----3-2-0-2-0----8---8-8-8---7--7-7-0-|
6:-0----3-2-0-2-0----8---8-8-8---7--7-7-0-|-0----3-2-0-2-0----8---8-8-8---7--7-7-0-|

1:----------------------|---------------------|
2:----------------------|---------------------|
3:----------------------|---------------------|
4:--3-2-0-2-0--3--2--0--|-3-2-0-2-0--3--2--0--|
5:--3-2-0-2-0--3--2--0--|-3-2-0-2-0--3--2--0--|
6:--3-2-0-2-0--3--2--0--|-3-2-0-2-0--3--2--0--|

1:-----------------------|----------------------------------------|
2:-----------------------|----------------------------------------|
3:-----------------------|----------------------------------------|
4:--8---8-8-8---7--7-7-0-|-0----3-2-0-2-0----8---8-8-8---7--7-7-0-|
5:--8---8-8-8---7--7-7-0-|-0----3-2-0-2-0----8---8-8-8---7--7-7-0-|
6:--8---8-8-8---7--7-7-0-|-0----3-2-0-2-0----8---8-8-8---7--7-7-0-|

1:----------------------|---------------------|----------------------|---------------------|
2:----------------------|---------------------|----------------------|---------------------|
3:----------------------|---------------------|----------------------|---------------------|
4:--3-2-0-2-0--3--2--0--|-3-2-0-2-0--3--2--0--|--3-2-0-2-0--3--2--0--|-3-2-0-2-0--3--2--0--|
5:--3-2-0-2-0--3--2--0--|-3-2-0-2-0--3--2--0--|--3-2-0-2-0--3--2--0--|-3-2-0-2-0--3--2--0--|
6:--3-2-0-2-0--3--2--0--|-3-2-0-2-0--3--2--0--|--3-2-0-2-0--3--2--0--|-3-2-0-2-0--3--2--0--|

---------------------|---------------------|---------------------|---------------------|
---------------------|---------------------|---------------------|---------------------|
---------------------|---------------------|---------------------|---------------------|
-0--0-0-0-0--3--0--2-|-0--0-0-0-0--3--0--2-|-0--0-0-0-0--3--0--2-|-0--0-0-0-0--3--0--2-|
-0--0-0-0-0--3--0--2-|-0--0-0-0-0--3--0--2-|-0--0-0-0-0--3--0--2-|-0--0-0-0-0--3--0--2-|
-0--0-0-0-0--3--0--2-|-0--0-0-0-0--3--0--2-|-0--0-0-0-0--3--0--2-|-0--0-0-0-0--3--0--2-|


ORDER:
Intro
Chorus
Intro
Verse 2x
Chorus
Intro
Verse 2x
Chorus
Bridge
Outro-Chorus
Tap to rate this tab
# A B C D E F G H I J K L M N O P Q R S T U V W X Y Z