Song name
# A B C D E F G H I J K L M N O P Q R S T U V W X Y Z

Terror - Life And Death tab

/ - slide

Intro x1
D|----|
A|----|
F|----|
C|-4--|
G|-4--|Pickslide
D|-2--|

Verse x2
D|------------------------------------------------|
A|------------------------------------------------|
F|--------4/5----------4/5----------4/5-----------|
C|-4-4-4--4/5---4-4-4--4/5---4-4-4--4/5--7-7-7-7--|
G|-4-4-4--2/3---4-4-4--2/3---4-4-4--2/3--7-7-7-7--|
D|-2-2-2--------2-2-2--------2-2-2-------5-5-5-5--|

Verse x2
D|----------------|-----------|
A|----------------|-----------|
F|----5------4/5--|-----------|
C|-4--5---4--4/5--|--4--4--4--|
G|-4--3---4--2/3--|--4--4--4--|Pickslide
D|-2------2-------|--2--2--2--|


Chorus x4
D|-------------------------------------------------|
A|-------------------------------------------------|
F|--------------5-5-5-5-5-5-------------------5-5--|
C|-4-4-4-4-4-4--5-5-5-5-5-5--7-7-7-7-7-7--5/7-5-5--|
G|-4-4-4-4-4-4--3-3-3-3-3-3--7-7-7-7-7-7--5/7-3-3--|
D|-2-2-2-2-2-2---------------5-5-5-5-5-5--3/5------|


Outro x1
D|---------------------------------------------|
A|---------------------------------------------|
F|-----------------------------4-4-4-5-5-5-----|
C|-4-------------4-4-4--7-7-7--4-4-4-5-5-5--4--|
G|-4--Pickslide--4-4-4--7-7-7--2-2-2-3-3-3--4--|
D|-2-------------2-2-2--5-5-5---------------2--|
Tap to rate this tab
# A B C D E F G H I J K L M N O P Q R S T U V W X Y Z