Song name
# A B C D E F G H I J K L M N O P Q R S T U V W X Y Z

The Expendables - Bowl For Two tab

Intro

e|-------------------------------------------3----0----3-0-------|
B|-------------------------------------------0-----0----0--------|
G|-------------------------------------------0------0------------|
D|--------------------0---0h2p0---0----------0-------------------|
A|----0---0h2p0---0-2---2-------2---2--/7----2-------------------|
E|--3---3-------3-------------------------0--x-------------------|


e|-------------------------------------------3------x7x----------|
B|-------------------------------------------0------x7x----------|
G|-------------------------------------------0------x7x----------|
D|--------------------0---0h2p0---0----------0------x7x----------|
A|----0---0h2p0---0-2---2-------2---2--/7----2------x7x----------|
E|--3---3-------3-------------------------0--x------x7x----------|


e|-------------------------------------------3----0----3-0-------|
B|-------------------------------------------0-----0----0--------|
G|-------------------------------------------0------0------------|
D|--------------------0---0h2p0---0----------0-------------------|
A|----0---0h2p0---0-2---2-------2---2--/7----2-------------------|
E|--3---3-------3-------------------------0--x-------------------|


e|-------------------------------------------3------x7x----------|
B|-------------------------------------------0------x7x----------|
G|-------------------------------------------0------x7x----------|
D|--------------------0---0h2p0---0----------0------x7x----------|
A|----0---0h2p0---0-2---2-------2---2--/7----2------x7x----------|
E|--3---3-------3-------------------------0--x------x7x----------|


Chords
                           D  U  D  U  U  D  U
e|--3---x---7--------------7  7  7  10 10 10 0 --------------------|
B|--3---x---8--------------8  8  8  8  8  8  8---------------------|
G|--4---5---9--------------9  9  9  7  7  7  7---------------------|
D|--5---5---9--------------9  9  9  9  9  9  9---------------------|
A|--5---3---7--------------7  7  7  7  7  7  7---------------------|
E|--3---x---x--------------x  x  x  x  x  x  x---------------------|
Tap to rate this tab
# A B C D E F G H I J K L M N O P Q R S T U V W X Y Z