Song name
# A B C D E F G H I J K L M N O P Q R S T U V W X Y Z

The Expendables - Bowl For Two tab

Hey everyone, I noticed there aren't very many/very accurate tabs for this solo. So here 
is, the way i learned it.

E|-------------------------------------------------------------------|
B|-------------------------------------------------------------------|
G|-----14b^16-r14p12h14~---12--14--14br-p12--------------------------|
D|------------------------------------------14~----------------------|
A|-------------------------------------------------------------------|
E|-------------------------------------------------------------------|

    * * *
E|-----12------------------------------------------------------------|
B|---12----12----------15--------------------------------------------|
G|-12----------12--14b^^^16r--12-14----------------------------------|
D|----------------------------------14~------------------------------|
A|-------------------------------------------------------------------|
E|-------------------------------------------------------------------|

E|-------------------------------------------------------------------|
B|-----------------------------------------17-17--17-/17-------------|
G|-----------14-13-12---------12-13-14--/16-----16-------------------|
D|--14-13-12----------12-13-14---------------------------------------|
A|-------------------------------------------------------------------|
E|-------------------------------------------------------------------|

E|--15-17-17br p15-17-15---------------------------------------------|
B|------------------------17----15-----------------------------------|
G|---------------------------16----16~-------------------------------|
D|-------------------------------------------------------------------|
A|-------------------------------------------------------------------|
E|-------------------------------------------------------------------|

E|-------------------------------------------------------------------|
B|-----------------------15b~----------------------------------------|
G|--12-14-14br-p12-14-12---------------------------------------------|
D|-------------------------------------------------------------------|
A|-------------------------------------------------------------------|
E|-------------------------------------------------------------------|

There you have it, this is how i play it, it sounds pretty good to me, if you have any 
my email is holyfire001202@gmail.com
and my aim is holyfire001202
Tap to rate this tab
# A B C D E F G H I J K L M N O P Q R S T U V W X Y Z